ISO-10303-21;
HEADER;
FILE_DESCRIPTION (( 'STEP AP203' ),
    '1' );
FILE_NAME ('100572.STEP',
    '2024-05-09T07:59:41',
    ( '' ),
    ( '' ),
    'SwSTEP 2.0',
    'SolidWorks 2020',
    '' );
FILE_SCHEMA (( 'CONFIG_CONTROL_DESIGN' ));
ENDSEC;

DATA;
#1 = EDGE_LOOP ( 'NONE', ( #127, #116, #4, #157 ) ) ;
#2 = AXIS2_PLACEMENT_3D ( 'NONE', #138, #103, #34 ) ;
#3 = PRODUCT_DEFINITION_FORMATION_WITH_SPECIFIED_SOURCE ( 'ÈÎºÎ', '', #52, .NOT_KNOWN. ) ;
#4 = ORIENTED_EDGE ( 'NONE', *, *, #189, .T. ) ;
#5 = DIRECTION ( 'NONE',  ( 0.000000000000000000, 0.000000000000000000, 1.000000000000000000 ) ) ;
#6 = PERSON_AND_ORGANIZATION_ROLE ( 'classification_officer' ) ;
#7 = APPLICATION_CONTEXT ( 'configuration controlled 3d designs of mechanical parts and assemblies' ) ;
#8 = DIRECTION ( 'NONE',  ( 0.000000000000000000, 0.000000000000000000, 1.000000000000000000 ) ) ;
#9 = LOCAL_TIME ( 15, 59, 41.00000000000000000, #147 ) ;
#10 = CARTESIAN_POINT ( 'NONE',  ( 0.000000000000000000, -1.734723475976807094E-15, 15.00000000000000000 ) ) ;
#11 = AXIS2_PLACEMENT_3D ( 'NONE', #113, #161, #8 ) ;
#12 = ORIENTED_EDGE ( 'NONE', *, *, #64, .T. ) ;
#13 = AXIS2_PLACEMENT_3D ( 'NONE', #190, #67, #46 ) ;
#14 = CC_DESIGN_SECURITY_CLASSIFICATION ( #152, ( #3 ) ) ;
#15 = DIRECTION ( 'NONE',  ( -0.000000000000000000, 1.000000000000000000, -0.000000000000000000 ) ) ;
#16 = DATE_AND_TIME ( #171, #172 ) ;
#17 = PRODUCT_DEFINITION ( 'Î´Öª', '', #3, #112 ) ;
#18 = DATE_AND_TIME ( #80, #63 ) ;
#19 = PERSON_AND_ORGANIZATION_ROLE ( 'design_supplier' ) ;
#20 = SECURITY_CLASSIFICATION_LEVEL ( 'unclassified' ) ;
#21 = DIRECTION ( 'NONE',  ( 1.000000000000000000, 0.000000000000000000, 0.000000000000000000 ) ) ;
#22 = DIRECTION ( 'NONE',  ( -0.000000000000000000, 1.000000000000000000, -0.000000000000000000 ) ) ;
#23 = DIRECTION ( 'NONE',  ( -1.000000000000000000, 0.000000000000000000, 0.000000000000000000 ) ) ;
#24 = AXIS2_PLACEMENT_3D ( 'NONE', #162, #66, #5 ) ;
#25 = AXIS2_PLACEMENT_3D ( 'NONE', #54, #38, #179 ) ;
#26 = ADVANCED_FACE ( 'NONE', ( #159 ), #105, .T. ) ;
#27 = CC_DESIGN_APPROVAL ( #146, ( #152 ) ) ;
#28 = ORIENTED_EDGE ( 'NONE', *, *, #106, .F. ) ;
#29 = ORIENTED_EDGE ( 'NONE', *, *, #156, .T. ) ;
#30 = ORIENTED_EDGE ( 'NONE', *, *, #106, .T. ) ;
#31 = CARTESIAN_POINT ( 'NONE',  ( 0.000000000000000000, -18.53999998761622692, 0.000000000000000000 ) ) ;
#32 = CALENDAR_DATE ( 2024, 9, 5 ) ;
#33 = CIRCLE ( 'NONE', #25, 15.00000000000000000 ) ;
#34 = DIRECTION ( 'NONE',  ( 0.000000000000000000, -0.000000000000000000, -1.000000000000000000 ) ) ;
#35 = PLANE ( 'NONE',  #2 ) ;
#36 = DIRECTION ( 'NONE',  ( 0.000000000000000000, 0.000000000000000000, 1.000000000000000000 ) ) ;
#37 = CC_DESIGN_DATE_AND_TIME_ASSIGNMENT ( #16, #163, ( #17 ) ) ;
#38 = DIRECTION ( 'NONE',  ( -0.000000000000000000, 1.000000000000000000, -0.000000000000000000 ) ) ;
#39 = CC_DESIGN_PERSON_AND_ORGANIZATION_ASSIGNMENT ( #168, #122, ( #52 ) ) ;
#40 = CARTESIAN_POINT ( 'NONE',  ( 0.000000000000000000, 7.299999999999999822, 0.000000000000000000 ) ) ;
#41 = AXIS2_PLACEMENT_3D ( 'NONE', #102, #36, #21 ) ;
#42 = ADVANCED_FACE ( 'NONE', ( #114 ), #83, .T. ) ;
#43 = DIRECTION ( 'NONE',  ( -0.000000000000000000, 1.000000000000000000, -0.000000000000000000 ) ) ;
#44 = ORIENTED_EDGE ( 'NONE', *, *, #64, .F. ) ;
#45 = APPROVAL_ROLE ( '' ) ;
#46 = DIRECTION ( 'NONE',  ( 0.000000000000000000, 0.000000000000000000, 1.000000000000000000 ) ) ;
#47 = COORDINATED_UNIVERSAL_TIME_OFFSET ( 8, 0, .AHEAD. ) ;
#48 = CIRCLE ( 'NONE', #154, 15.00000000000000000 ) ;
#49 = APPROVAL_STATUS ( 'not_yet_approved' ) ;
#50 = APPROVAL_PERSON_ORGANIZATION ( #101, #146, #45 ) ;
#51 = CARTESIAN_POINT ( 'NONE',  ( 1.836970198721029589E-15, 2.499999999999998224, -15.00000000000000178 ) ) ;
#52 = PRODUCT ( '100572', '100572', '', ( #134 ) ) ;
#53 = EDGE_CURVE ( 'NONE', #75, #59, #115, .T. ) ;
#54 = CARTESIAN_POINT ( 'NONE',  ( 0.000000000000000000, -1.734723475976807094E-15, 0.000000000000000000 ) ) ;
#55 = CLOSED_SHELL ( 'NONE', ( #185, #26, #42, #143, #73 ) ) ;
#56 =( LENGTH_UNIT ( ) NAMED_UNIT ( * ) SI_UNIT ( .MILLI., .METRE. ) );
#57 = LINE ( 'NONE', #180, #119 ) ;
#58 = CYLINDRICAL_SURFACE ( 'NONE', #135, 15.00000000000000000 ) ;
#59 = VERTEX_POINT ( 'NONE', #131 ) ;
#60 = ORIENTED_EDGE ( 'NONE', *, *, #82, .T. ) ;
#61 = DATE_AND_TIME ( #158, #126 ) ;
#62 = MANIFOLD_SOLID_BREP ( 'Ðý×ª1', #55 ) ;
#63 = LOCAL_TIME ( 15, 59, 41.00000000000000000, #132 ) ;
#64 = EDGE_CURVE ( 'NONE', #59, #75, #90, .T. ) ;
#65 = ADVANCED_BREP_SHAPE_REPRESENTATION ( '100572', ( #62, #41 ), #192 ) ;
#66 = DIRECTION ( 'NONE',  ( -0.000000000000000000, 1.000000000000000000, -0.000000000000000000 ) ) ;
#67 = DIRECTION ( 'NONE',  ( -0.000000000000000000, 1.000000000000000000, -0.000000000000000000 ) ) ;
#68 = PERSON_AND_ORGANIZATION ( #182, #164 ) ;
#69 = FACE_OUTER_BOUND ( 'NONE', #142, .T. ) ;
#70 = CIRCLE ( 'NONE', #128, 25.84000000000000696 ) ;
#71 =( NAMED_UNIT ( * ) SI_UNIT ( $, .STERADIAN. ) SOLID_ANGLE_UNIT ( ) );
#72 = EDGE_LOOP ( 'NONE', ( #12, #60, #28 ) ) ;
#73 = ADVANCED_FACE ( 'NONE', ( #129 ), #118, .T. ) ;
#74 = VERTEX_POINT ( 'NONE', #10 ) ;
#75 = VERTEX_POINT ( 'NONE', #51 ) ;
#76 = AXIS2_PLACEMENT_3D ( 'NONE', #150, #136, #195 ) ;
#77 = ORIENTED_EDGE ( 'NONE', *, *, #156, .F. ) ;
#78 = APPROVAL_PERSON_ORGANIZATION ( #68, #194, #95 ) ;
#79 = DIRECTION ( 'NONE',  ( 0.000000000000000000, 0.000000000000000000, 1.000000000000000000 ) ) ;
#80 = CALENDAR_DATE ( 2024, 9, 5 ) ;
#81 = PERSON_AND_ORGANIZATION ( #182, #164 ) ;
#82 = EDGE_CURVE ( 'NONE', #75, #92, #176, .T. ) ;
#83 = TOROIDAL_SURFACE ( 'NONE', #200, -0.0007999960371955425198, 25.84000000000000696 ) ;
#84 = SHAPE_DEFINITION_REPRESENTATION ( #191, #65 ) ;
#85 = APPROVAL_ROLE ( '' ) ;
#86 = CARTESIAN_POINT ( 'NONE',  ( 1.836970198721029589E-15, 7.299999999999999822, -15.00000000000000000 ) ) ;
#87 = CALENDAR_DATE ( 2024, 9, 5 ) ;
#88 = CARTESIAN_POINT ( 'NONE',  ( 0.000000000000000000, 7.299999999999999822, 0.000000000000000000 ) ) ;
#89 = APPROVAL_DATE_TIME ( #61, #139 ) ;
#90 = CIRCLE ( 'NONE', #13, 15.00000000000000000 ) ;
#91 = CC_DESIGN_APPROVAL ( #139, ( #17 ) ) ;
#92 = VERTEX_POINT ( 'NONE', #88 ) ;
#93 = COORDINATED_UNIVERSAL_TIME_OFFSET ( 8, 0, .AHEAD. ) ;
#94 = ORIENTED_EDGE ( 'NONE', *, *, #140, .T. ) ;
#95 = APPROVAL_ROLE ( '' ) ;
#96 = PERSON_AND_ORGANIZATION_ROLE ( 'creator' ) ;
#97 = PERSON_AND_ORGANIZATION ( #182, #164 ) ;
#98 = APPROVAL_STATUS ( 'not_yet_approved' ) ;
#99 = CC_DESIGN_PERSON_AND_ORGANIZATION_ASSIGNMENT ( #153, #181, ( #17 ) ) ;
#100 = DIRECTION ( 'NONE',  ( 0.000000000000000000, 0.000000000000000000, 1.000000000000000000 ) ) ;
#101 = PERSON_AND_ORGANIZATION ( #182, #164 ) ;
#102 = CARTESIAN_POINT ( 'NONE',  ( 0.000000000000000000, 0.000000000000000000, 0.000000000000000000 ) ) ;
#103 = DIRECTION ( 'NONE',  ( 0.000000000000000000, -1.000000000000000000, 0.000000000000000000 ) ) ;
#104 = PERSON_AND_ORGANIZATION ( #182, #164 ) ;
#105 = TOROIDAL_SURFACE ( 'NONE', #197, -0.0007999960371955425198, 25.84000000000000696 ) ;
#106 = EDGE_CURVE ( 'NONE', #59, #92, #70, .T. ) ;
#107 = DIRECTION ( 'NONE',  ( -0.000000000000000000, 1.000000000000000000, -0.000000000000000000 ) ) ;
#108 = COORDINATED_UNIVERSAL_TIME_OFFSET ( 8, 0, .AHEAD. ) ;
#109 = VECTOR ( 'NONE', #22, 1000.000000000000000 ) ;
#110 = EDGE_LOOP ( 'NONE', ( #184, #201, #30 ) ) ;
#111 = EDGE_LOOP ( 'NONE', ( #29, #94, #44, #130 ) ) ;
#112 = DESIGN_CONTEXT ( 'detailed design', #7, 'design' ) ;
#113 = CARTESIAN_POINT ( 'NONE',  ( 0.000000000000000000, 7.299999999999999822, 0.000000000000000000 ) ) ;
#114 = FACE_OUTER_BOUND ( 'NONE', #110, .T. ) ;
#115 = CIRCLE ( 'NONE', #24, 15.00000000000000000 ) ;
#116 = ORIENTED_EDGE ( 'NONE', *, *, #160, .T. ) ;
#117 = CC_DESIGN_PERSON_AND_ORGANIZATION_ASSIGNMENT ( #81, #6, ( #152 ) ) ;
#118 = CYLINDRICAL_SURFACE ( 'NONE', #11, 15.00000000000000000 ) ;
#119 = VECTOR ( 'NONE', #107, 1000.000000000000000 ) ;
#120 = CC_DESIGN_APPROVAL ( #194, ( #3 ) ) ;
#121 = LINE ( 'NONE', #86, #109 ) ;
#122 = PERSON_AND_ORGANIZATION_ROLE ( 'design_owner' ) ;
#123 = CARTESIAN_POINT ( 'NONE',  ( 1.836970198721029589E-15, -1.734723475976807094E-15, -15.00000000000000000 ) ) ;
#124 = FACE_OUTER_BOUND ( 'NONE', #111, .T. ) ;
#125 = CC_DESIGN_PERSON_AND_ORGANIZATION_ASSIGNMENT ( #188, #96, ( #3 ) ) ;
#126 = LOCAL_TIME ( 15, 59, 41.00000000000000000, #93 ) ;
#127 = ORIENTED_EDGE ( 'NONE', *, *, #140, .F. ) ;
#128 = AXIS2_PLACEMENT_3D ( 'NONE', #196, #23, #100 ) ;
#129 = FACE_OUTER_BOUND ( 'NONE', #1, .T. ) ;
#130 = ORIENTED_EDGE ( 'NONE', *, *, #189, .F. ) ;
#131 = CARTESIAN_POINT ( 'NONE',  ( 0.000000000000000000, 2.499999999999998224, 15.00000000000000178 ) ) ;
#132 = COORDINATED_UNIVERSAL_TIME_OFFSET ( 8, 0, .AHEAD. ) ;
#133 = APPROVAL_DATE_TIME ( #193, #146 ) ;
#134 = MECHANICAL_CONTEXT ( 'NONE', #173, 'mechanical' ) ;
#135 = AXIS2_PLACEMENT_3D ( 'NONE', #40, #199, #155 ) ;
#136 = DIRECTION ( 'NONE',  ( 1.000000000000000000, 0.000000000000000000, 1.224646799147353207E-16 ) ) ;
#137 = APPLICATION_PROTOCOL_DEFINITION ( 'international standard', 'config_control_design', 1994, #173 ) ;
#138 = CARTESIAN_POINT ( 'NONE',  ( 0.000000000000000000, -9.184850993605147944E-16, 0.000000000000000000 ) ) ;
#139 = APPROVAL ( #98, 'Î´Ö¸¶¨' ) ;
#140 = EDGE_CURVE ( 'NONE', #144, #75, #121, .T. ) ;
#141 =( NAMED_UNIT ( * ) PLANE_ANGLE_UNIT ( ) SI_UNIT ( $, .RADIAN. ) );
#142 = EDGE_LOOP ( 'NONE', ( #77, #174 ) ) ;
#143 = ADVANCED_FACE ( 'NONE', ( #69 ), #35, .T. ) ;
#144 = VERTEX_POINT ( 'NONE', #123 ) ;
#145 = LOCAL_TIME ( 15, 59, 41.00000000000000000, #47 ) ;
#146 = APPROVAL ( #49, 'Î´Ö¸¶¨' ) ;
#147 = COORDINATED_UNIVERSAL_TIME_OFFSET ( 8, 0, .AHEAD. ) ;
#148 = CARTESIAN_POINT ( 'NONE',  ( 0.000000000000000000, -18.53999998761622692, 0.000000000000000000 ) ) ;
#149 = DATE_AND_TIME ( #87, #145 ) ;
#150 = CARTESIAN_POINT ( 'NONE',  ( -9.797125862820881380E-20, -18.53999998761622692, 0.0007999960371955425198 ) ) ;
#151 = DIRECTION ( 'NONE',  ( 0.000000000000000000, 0.000000000000000000, 1.000000000000000000 ) ) ;
#152 = SECURITY_CLASSIFICATION ( '', '', #20 ) ;
#153 = PERSON_AND_ORGANIZATION ( #182, #164 ) ;
#154 = AXIS2_PLACEMENT_3D ( 'NONE', #169, #170, #151 ) ;
#155 = DIRECTION ( 'NONE',  ( 0.000000000000000000, 0.000000000000000000, 1.000000000000000000 ) ) ;
#156 = EDGE_CURVE ( 'NONE', #74, #144, #48, .T. ) ;
#157 = ORIENTED_EDGE ( 'NONE', *, *, #53, .F. ) ;
#158 = CALENDAR_DATE ( 2024, 9, 5 ) ;
#159 = FACE_OUTER_BOUND ( 'NONE', #72, .T. ) ;
#160 = EDGE_CURVE ( 'NONE', #144, #74, #33, .T. ) ;
#161 = DIRECTION ( 'NONE',  ( -0.000000000000000000, 1.000000000000000000, -0.000000000000000000 ) ) ;
#162 = CARTESIAN_POINT ( 'NONE',  ( 0.000000000000000000, 2.499999999999997780, 0.000000000000000000 ) ) ;
#163 = DATE_TIME_ROLE ( 'creation_date' ) ;
#164 = ORGANIZATION ( 'Î´Ö¸¶¨', 'Î´Ö¸¶¨', '' ) ;
#165 = APPROVAL_STATUS ( 'not_yet_approved' ) ;
#166 = CC_DESIGN_DATE_AND_TIME_ASSIGNMENT ( #149, #175, ( #152 ) ) ;
#167 = APPROVAL_DATE_TIME ( #18, #194 ) ;
#168 = PERSON_AND_ORGANIZATION ( #182, #164 ) ;
#169 = CARTESIAN_POINT ( 'NONE',  ( 0.000000000000000000, -1.734723475976807094E-15, 0.000000000000000000 ) ) ;
#170 = DIRECTION ( 'NONE',  ( -0.000000000000000000, 1.000000000000000000, -0.000000000000000000 ) ) ;
#171 = CALENDAR_DATE ( 2024, 9, 5 ) ;
#172 = LOCAL_TIME ( 15, 59, 41.00000000000000000, #108 ) ;
#173 = APPLICATION_CONTEXT ( 'configuration controlled 3d designs of mechanical parts and assemblies' ) ;
#174 = ORIENTED_EDGE ( 'NONE', *, *, #160, .F. ) ;
#175 = DATE_TIME_ROLE ( 'classification_date' ) ;
#176 = CIRCLE ( 'NONE', #76, 25.84000000000000696 ) ;
#177 = CC_DESIGN_PERSON_AND_ORGANIZATION_ASSIGNMENT ( #97, #19, ( #3 ) ) ;
#178 = APPLICATION_PROTOCOL_DEFINITION ( 'international standard', 'config_control_design', 1994, #7 ) ;
#179 = DIRECTION ( 'NONE',  ( 0.000000000000000000, 0.000000000000000000, 1.000000000000000000 ) ) ;
#180 = CARTESIAN_POINT ( 'NONE',  ( 0.000000000000000000, 7.299999999999999822, 15.00000000000000000 ) ) ;
#181 = PERSON_AND_ORGANIZATION_ROLE ( 'creator' ) ;
#182 = PERSON ( 'Î´Ö¸¶¨', 'Î´Ö¸¶¨', 'Î´Ö¸¶¨', ('Î´Ö¸¶¨'), ('Î´Ö¸¶¨'), ('Î´Ö¸¶¨') ) ;
#183 = APPROVAL_PERSON_ORGANIZATION ( #104, #139, #85 ) ;
#184 = ORIENTED_EDGE ( 'NONE', *, *, #82, .F. ) ;
#185 = ADVANCED_FACE ( 'NONE', ( #124 ), #58, .T. ) ;
#186 = UNCERTAINTY_MEASURE_WITH_UNIT (LENGTH_MEASURE( 1.000000000000000082E-05 ), #56, 'distance_accuracy_value', 'NONE');
#187 = DIRECTION ( 'NONE',  ( 0.000000000000000000, 0.000000000000000000, 1.000000000000000000 ) ) ;
#188 = PERSON_AND_ORGANIZATION ( #182, #164 ) ;
#189 = EDGE_CURVE ( 'NONE', #74, #59, #57, .T. ) ;
#190 = CARTESIAN_POINT ( 'NONE',  ( 0.000000000000000000, 2.499999999999997780, 0.000000000000000000 ) ) ;
#191 = PRODUCT_DEFINITION_SHAPE ( 'NONE', 'NONE',  #17 ) ;
#192 =( GEOMETRIC_REPRESENTATION_CONTEXT ( 3 ) GLOBAL_UNCERTAINTY_ASSIGNED_CONTEXT ( ( #186 ) ) GLOBAL_UNIT_ASSIGNED_CONTEXT ( ( #56, #141, #71 ) ) REPRESENTATION_CONTEXT ( 'NONE', 'WORKASPACE' ) );
#193 = DATE_AND_TIME ( #32, #9 ) ;
#194 = APPROVAL ( #165, 'Î´Ö¸¶¨' ) ;
#195 = DIRECTION ( 'NONE',  ( 1.224646799147353207E-16, 0.000000000000000000, -1.000000000000000000 ) ) ;
#196 = CARTESIAN_POINT ( 'NONE',  ( 0.000000000000000000, -18.53999998761622692, -0.0007999960371955425198 ) ) ;
#197 = AXIS2_PLACEMENT_3D ( 'NONE', #31, #43, #79 ) ;
#198 = PRODUCT_RELATED_PRODUCT_CATEGORY ( 'detail', '', ( #52 ) ) ;
#199 = DIRECTION ( 'NONE',  ( -0.000000000000000000, 1.000000000000000000, -0.000000000000000000 ) ) ;
#200 = AXIS2_PLACEMENT_3D ( 'NONE', #148, #15, #187 ) ;
#201 = ORIENTED_EDGE ( 'NONE', *, *, #53, .T. ) ;
ENDSEC;
END-ISO-10303-21;
