ISO-10303-21;
HEADER;
FILE_DESCRIPTION (( 'STEP AP203' ),
    '1' );
FILE_NAME ('100577.STEP',
    '2024-05-09T09:12:55',
    ( '' ),
    ( '' ),
    'SwSTEP 2.0',
    'SolidWorks 2020',
    '' );
FILE_SCHEMA (( 'CONFIG_CONTROL_DESIGN' ));
ENDSEC;

DATA;
#1 = PRODUCT_DEFINITION_FORMATION_WITH_SPECIFIED_SOURCE ( 'ÈÎºÎ', '', #170, .NOT_KNOWN. ) ;
#2 = DIRECTION ( 'NONE',  ( -0.000000000000000000, 1.000000000000000000, -0.000000000000000000 ) ) ;
#3 = FACE_OUTER_BOUND ( 'NONE', #43, .T. ) ;
#4 = CC_DESIGN_PERSON_AND_ORGANIZATION_ASSIGNMENT ( #135, #31, ( #170 ) ) ;
#5 = DESIGN_CONTEXT ( 'detailed design', #57, 'design' ) ;
#6 = DIRECTION ( 'NONE',  ( -0.000000000000000000, 1.000000000000000000, -0.000000000000000000 ) ) ;
#7 = CALENDAR_DATE ( 2024, 9, 5 ) ;
#8 = AXIS2_PLACEMENT_3D ( 'NONE', #44, #28, #145 ) ;
#9 = PERSON_AND_ORGANIZATION ( #158, #131 ) ;
#10 = DIRECTION ( 'NONE',  ( -0.000000000000000000, 1.000000000000000000, -0.000000000000000000 ) ) ;
#11 = EDGE_LOOP ( 'NONE', ( #147, #70 ) ) ;
#12 = EDGE_CURVE ( 'NONE', #88, #196, #199, .T. ) ;
#13 = FACE_OUTER_BOUND ( 'NONE', #71, .T. ) ;
#14 = CIRCLE ( 'NONE', #195, 15.00000000000000000 ) ;
#15 = CC_DESIGN_PERSON_AND_ORGANIZATION_ASSIGNMENT ( #9, #37, ( #46 ) ) ;
#16 = DATE_AND_TIME ( #148, #121 ) ;
#17 = DIRECTION ( 'NONE',  ( 1.224646799147353207E-16, 0.000000000000000000, -1.000000000000000000 ) ) ;
#18 = EDGE_CURVE ( 'NONE', #88, #194, #93, .T. ) ;
#19 = CARTESIAN_POINT ( 'NONE',  ( -4.106600044365310216E-18, -99.67999455626598149, 0.03353293412618630481 ) ) ;
#20 = APPROVAL_PERSON_ORGANIZATION ( #192, #200, #109 ) ;
#21 = DATE_TIME_ROLE ( 'creation_date' ) ;
#22 = DIRECTION ( 'NONE',  ( 0.000000000000000000, 0.000000000000000000, 1.000000000000000000 ) ) ;
#23 = DATE_AND_TIME ( #80, #184 ) ;
#24 = AXIS2_PLACEMENT_3D ( 'NONE', #181, #74, #162 ) ;
#25 = DIRECTION ( 'NONE',  ( 0.000000000000000000, 0.000000000000000000, 1.000000000000000000 ) ) ;
#26 = CC_DESIGN_SECURITY_CLASSIFICATION ( #46, ( #1 ) ) ;
#27 = DATE_AND_TIME ( #117, #157 ) ;
#28 = DIRECTION ( 'NONE',  ( -0.000000000000000000, 1.000000000000000000, -0.000000000000000000 ) ) ;
#29 = ORIENTED_EDGE ( 'NONE', *, *, #12, .F. ) ;
#30 = CARTESIAN_POINT ( 'NONE',  ( 1.836970198721029589E-15, -1.734723475976807094E-15, -15.00000000000000000 ) ) ;
#31 = PERSON_AND_ORGANIZATION_ROLE ( 'design_owner' ) ;
#32 = AXIS2_PLACEMENT_3D ( 'NONE', #35, #65, #150 ) ;
#33 = FACE_OUTER_BOUND ( 'NONE', #42, .T. ) ;
#34 = EDGE_CURVE ( 'NONE', #161, #88, #59, .T. ) ;
#35 = CARTESIAN_POINT ( 'NONE',  ( 0.000000000000000000, -99.67999455626598149, 0.000000000000000000 ) ) ;
#36 = CC_DESIGN_APPROVAL ( #200, ( #46 ) ) ;
#37 = PERSON_AND_ORGANIZATION_ROLE ( 'classification_officer' ) ;
#38 = DATE_AND_TIME ( #68, #152 ) ;
#39 = APPLICATION_PROTOCOL_DEFINITION ( 'international standard', 'config_control_design', 1994, #129 ) ;
#40 = ADVANCED_FACE ( 'NONE', ( #13 ), #178, .T. ) ;
#41 = TOROIDAL_SURFACE ( 'NONE', #156, -0.03353293412618630481, 103.2800000000000296 ) ;
#42 = EDGE_LOOP ( 'NONE', ( #132, #118, #29 ) ) ;
#43 = EDGE_LOOP ( 'NONE', ( #58, #180, #159, #102 ) ) ;
#44 = CARTESIAN_POINT ( 'NONE',  ( 0.000000000000000000, 3.600000000000000533, 0.000000000000000000 ) ) ;
#45 = MECHANICAL_CONTEXT ( 'NONE', #129, 'mechanical' ) ;
#46 = SECURITY_CLASSIFICATION ( '', '', #142 ) ;
#47 = ADVANCED_BREP_SHAPE_REPRESENTATION ( '100577', ( #179, #136 ), #67 ) ;
#48 = DIRECTION ( 'NONE',  ( -0.000000000000000000, 1.000000000000000000, -0.000000000000000000 ) ) ;
#49 = AXIS2_PLACEMENT_3D ( 'NONE', #79, #48, #22 ) ;
#50 = CC_DESIGN_PERSON_AND_ORGANIZATION_ASSIGNMENT ( #128, #112, ( #1 ) ) ;
#51 = UNCERTAINTY_MEASURE_WITH_UNIT (LENGTH_MEASURE( 1.000000000000000082E-05 ), #125, 'distance_accuracy_value', 'NONE');
#52 = PERSON_AND_ORGANIZATION ( #158, #131 ) ;
#53 = CARTESIAN_POINT ( 'NONE',  ( 1.836970198721033533E-15, 2.500000000000000444, -15.00000000000002842 ) ) ;
#54 = LOCAL_TIME ( 17, 12, 55.00000000000000000, #168 ) ;
#55 = PERSON_AND_ORGANIZATION ( #158, #131 ) ;
#56 = ADVANCED_FACE ( 'NONE', ( #119 ), #160, .T. ) ;
#57 = APPLICATION_CONTEXT ( 'configuration controlled 3d designs of mechanical parts and assemblies' ) ;
#58 = ORIENTED_EDGE ( 'NONE', *, *, #143, .F. ) ;
#59 = LINE ( 'NONE', #89, #75 ) ;
#60 = AXIS2_PLACEMENT_3D ( 'NONE', #188, #107, #122 ) ;
#61 = DIRECTION ( 'NONE',  ( 0.000000000000000000, 0.000000000000000000, 1.000000000000000000 ) ) ;
#62 = COORDINATED_UNIVERSAL_TIME_OFFSET ( 8, 0, .AHEAD. ) ;
#63 = CARTESIAN_POINT ( 'NONE',  ( 1.836970198721029589E-15, 3.600000000000000533, -15.00000000000000000 ) ) ;
#64 = LINE ( 'NONE', #63, #187 ) ;
#65 = DIRECTION ( 'NONE',  ( -0.000000000000000000, 1.000000000000000000, -0.000000000000000000 ) ) ;
#66 = COORDINATED_UNIVERSAL_TIME_OFFSET ( 8, 0, .AHEAD. ) ;
#67 =( GEOMETRIC_REPRESENTATION_CONTEXT ( 3 ) GLOBAL_UNCERTAINTY_ASSIGNED_CONTEXT ( ( #51 ) ) GLOBAL_UNIT_ASSIGNED_CONTEXT ( ( #125, #190, #171 ) ) REPRESENTATION_CONTEXT ( 'NONE', 'WORKASPACE' ) );
#68 = CALENDAR_DATE ( 2024, 9, 5 ) ;
#69 = APPROVAL ( #140, 'Î´Ö¸¶¨' ) ;
#70 = ORIENTED_EDGE ( 'NONE', *, *, #198, .F. ) ;
#71 = EDGE_LOOP ( 'NONE', ( #91, #144, #193, #99 ) ) ;
#72 = SHAPE_DEFINITION_REPRESENTATION ( #186, #47 ) ;
#73 = VERTEX_POINT ( 'NONE', #30 ) ;
#74 = DIRECTION ( 'NONE',  ( 0.000000000000000000, -1.000000000000000000, 0.000000000000000000 ) ) ;
#75 = VECTOR ( 'NONE', #116, 1000.000000000000000 ) ;
#76 = APPROVAL_DATE_TIME ( #16, #173 ) ;
#77 = APPROVAL_PERSON_ORGANIZATION ( #183, #173, #201 ) ;
#78 = DIRECTION ( 'NONE',  ( 0.000000000000000000, 0.000000000000000000, 1.000000000000000000 ) ) ;
#79 = CARTESIAN_POINT ( 'NONE',  ( 0.000000000000000000, 3.600000000000000533, 0.000000000000000000 ) ) ;
#80 = CALENDAR_DATE ( 2024, 9, 5 ) ;
#81 = PERSON_AND_ORGANIZATION_ROLE ( 'creator' ) ;
#82 = PRODUCT_DEFINITION ( 'Î´Öª', '', #1, #5 ) ;
#83 = CIRCLE ( 'NONE', #60, 15.00000000000000000 ) ;
#84 = DIRECTION ( 'NONE',  ( 1.000000000000000000, 0.000000000000000000, 0.000000000000000000 ) ) ;
#85 = CLOSED_SHELL ( 'NONE', ( #40, #130, #90, #56, #182 ) ) ;
#86 = CC_DESIGN_PERSON_AND_ORGANIZATION_ASSIGNMENT ( #55, #81, ( #1 ) ) ;
#87 = DIRECTION ( 'NONE',  ( 0.000000000000000000, 0.000000000000000000, 1.000000000000000000 ) ) ;
#88 = VERTEX_POINT ( 'NONE', #100 ) ;
#89 = CARTESIAN_POINT ( 'NONE',  ( 0.000000000000000000, 3.600000000000000533, 15.00000000000000000 ) ) ;
#90 = ADVANCED_FACE ( 'NONE', ( #167 ), #41, .T. ) ;
#91 = ORIENTED_EDGE ( 'NONE', *, *, #124, .T. ) ;
#92 = APPROVAL_STATUS ( 'not_yet_approved' ) ;
#93 = CIRCLE ( 'NONE', #115, 15.00000000000000000 ) ;
#94 = AXIS2_PLACEMENT_3D ( 'NONE', #133, #103, #87 ) ;
#95 = DIRECTION ( 'NONE',  ( 1.000000000000000000, 0.000000000000000000, 1.224646799147353207E-16 ) ) ;
#96 = DATE_AND_TIME ( #7, #54 ) ;
#97 = DATE_TIME_ROLE ( 'classification_date' ) ;
#98 = AXIS2_PLACEMENT_3D ( 'NONE', #151, #2, #185 ) ;
#99 = ORIENTED_EDGE ( 'NONE', *, *, #34, .F. ) ;
#100 = CARTESIAN_POINT ( 'NONE',  ( 0.000000000000000000, 2.500000000000000444, 15.00000000000002842 ) ) ;
#101 = CC_DESIGN_DATE_AND_TIME_ASSIGNMENT ( #23, #21, ( #82 ) ) ;
#102 = ORIENTED_EDGE ( 'NONE', *, *, #163, .F. ) ;
#103 = DIRECTION ( 'NONE',  ( -1.000000000000000000, 0.000000000000000000, 0.000000000000000000 ) ) ;
#104 = COORDINATED_UNIVERSAL_TIME_OFFSET ( 8, 0, .AHEAD. ) ;
#105 = CC_DESIGN_APPROVAL ( #173, ( #82 ) ) ;
#106 = CARTESIAN_POINT ( 'NONE',  ( 0.000000000000000000, -1.734723475976807094E-15, 15.00000000000000000 ) ) ;
#107 = DIRECTION ( 'NONE',  ( -0.000000000000000000, 1.000000000000000000, -0.000000000000000000 ) ) ;
#108 = EDGE_CURVE ( 'NONE', #194, #196, #149, .T. ) ;
#109 = APPROVAL_ROLE ( '' ) ;
#110 = APPROVAL_PERSON_ORGANIZATION ( #52, #69, #155 ) ;
#111 = CARTESIAN_POINT ( 'NONE',  ( 0.000000000000000000, 3.600000000000000533, 0.000000000000000000 ) ) ;
#112 = PERSON_AND_ORGANIZATION_ROLE ( 'design_supplier' ) ;
#113 = DIRECTION ( 'NONE',  ( 0.000000000000000000, 0.000000000000000000, 1.000000000000000000 ) ) ;
#114 = ORIENTED_EDGE ( 'NONE', *, *, #163, .T. ) ;
#115 = AXIS2_PLACEMENT_3D ( 'NONE', #197, #10, #61 ) ;
#116 = DIRECTION ( 'NONE',  ( -0.000000000000000000, 1.000000000000000000, -0.000000000000000000 ) ) ;
#117 = CALENDAR_DATE ( 2024, 9, 5 ) ;
#118 = ORIENTED_EDGE ( 'NONE', *, *, #108, .T. ) ;
#119 = FACE_OUTER_BOUND ( 'NONE', #11, .T. ) ;
#120 = APPLICATION_PROTOCOL_DEFINITION ( 'international standard', 'config_control_design', 1994, #57 ) ;
#121 = LOCAL_TIME ( 17, 12, 55.00000000000000000, #62 ) ;
#122 = DIRECTION ( 'NONE',  ( 0.000000000000000000, 0.000000000000000000, 1.000000000000000000 ) ) ;
#123 = CYLINDRICAL_SURFACE ( 'NONE', #49, 15.00000000000000000 ) ;
#124 = EDGE_CURVE ( 'NONE', #161, #73, #83, .T. ) ;
#125 =( LENGTH_UNIT ( ) NAMED_UNIT ( * ) SI_UNIT ( .MILLI., .METRE. ) );
#126 = PERSON_AND_ORGANIZATION_ROLE ( 'creator' ) ;
#127 = CARTESIAN_POINT ( 'NONE',  ( 0.000000000000000000, -1.734723475976807094E-15, 0.000000000000000000 ) ) ;
#128 = PERSON_AND_ORGANIZATION ( #158, #131 ) ;
#129 = APPLICATION_CONTEXT ( 'configuration controlled 3d designs of mechanical parts and assemblies' ) ;
#130 = ADVANCED_FACE ( 'NONE', ( #33 ), #164, .T. ) ;
#131 = ORGANIZATION ( 'Î´Ö¸¶¨', 'Î´Ö¸¶¨', '' ) ;
#132 = ORIENTED_EDGE ( 'NONE', *, *, #18, .T. ) ;
#133 = CARTESIAN_POINT ( 'NONE',  ( 0.000000000000000000, -99.67999455626598149, -0.03353293412618630481 ) ) ;
#134 = ORIENTED_EDGE ( 'NONE', *, *, #108, .F. ) ;
#135 = PERSON_AND_ORGANIZATION ( #158, #131 ) ;
#136 = AXIS2_PLACEMENT_3D ( 'NONE', #154, #25, #84 ) ;
#137 = CC_DESIGN_PERSON_AND_ORGANIZATION_ASSIGNMENT ( #172, #126, ( #82 ) ) ;
#138 = DIRECTION ( 'NONE',  ( -0.000000000000000000, 1.000000000000000000, -0.000000000000000000 ) ) ;
#139 = DIRECTION ( 'NONE',  ( -0.000000000000000000, 1.000000000000000000, -0.000000000000000000 ) ) ;
#140 = APPROVAL_STATUS ( 'not_yet_approved' ) ;
#141 = AXIS2_PLACEMENT_3D ( 'NONE', #19, #95, #17 ) ;
#142 = SECURITY_CLASSIFICATION_LEVEL ( 'unclassified' ) ;
#143 = EDGE_CURVE ( 'NONE', #73, #194, #64, .T. ) ;
#144 = ORIENTED_EDGE ( 'NONE', *, *, #143, .T. ) ;
#145 = DIRECTION ( 'NONE',  ( 0.000000000000000000, 0.000000000000000000, 1.000000000000000000 ) ) ;
#146 = ORIENTED_EDGE ( 'NONE', *, *, #12, .T. ) ;
#147 = ORIENTED_EDGE ( 'NONE', *, *, #124, .F. ) ;
#148 = CALENDAR_DATE ( 2024, 9, 5 ) ;
#149 = CIRCLE ( 'NONE', #141, 103.2800000000000296 ) ;
#150 = DIRECTION ( 'NONE',  ( 0.000000000000000000, 0.000000000000000000, 1.000000000000000000 ) ) ;
#151 = CARTESIAN_POINT ( 'NONE',  ( 0.000000000000000000, 2.499999999999998224, 0.000000000000000000 ) ) ;
#152 = LOCAL_TIME ( 17, 12, 55.00000000000000000, #153 ) ;
#153 = COORDINATED_UNIVERSAL_TIME_OFFSET ( 8, 0, .AHEAD. ) ;
#154 = CARTESIAN_POINT ( 'NONE',  ( 0.000000000000000000, 0.000000000000000000, 0.000000000000000000 ) ) ;
#155 = APPROVAL_ROLE ( '' ) ;
#156 = AXIS2_PLACEMENT_3D ( 'NONE', #166, #139, #78 ) ;
#157 = LOCAL_TIME ( 17, 12, 55.00000000000000000, #104 ) ;
#158 = PERSON ( 'Î´Ö¸¶¨', 'Î´Ö¸¶¨', 'Î´Ö¸¶¨', ('Î´Ö¸¶¨'), ('Î´Ö¸¶¨'), ('Î´Ö¸¶¨') ) ;
#159 = ORIENTED_EDGE ( 'NONE', *, *, #34, .T. ) ;
#160 = PLANE ( 'NONE',  #24 ) ;
#161 = VERTEX_POINT ( 'NONE', #106 ) ;
#162 = DIRECTION ( 'NONE',  ( 0.000000000000000000, -0.000000000000000000, -1.000000000000000000 ) ) ;
#163 = EDGE_CURVE ( 'NONE', #194, #88, #175, .T. ) ;
#164 = TOROIDAL_SURFACE ( 'NONE', #32, -0.03353293412618630481, 103.2800000000000296 ) ;
#165 = PRODUCT_RELATED_PRODUCT_CATEGORY ( 'detail', '', ( #170 ) ) ;
#166 = CARTESIAN_POINT ( 'NONE',  ( 0.000000000000000000, -99.67999455626598149, 0.000000000000000000 ) ) ;
#167 = FACE_OUTER_BOUND ( 'NONE', #177, .T. ) ;
#168 = COORDINATED_UNIVERSAL_TIME_OFFSET ( 8, 0, .AHEAD. ) ;
#169 = CC_DESIGN_APPROVAL ( #69, ( #1 ) ) ;
#170 = PRODUCT ( '100577', '100577', '', ( #45 ) ) ;
#171 =( NAMED_UNIT ( * ) SI_UNIT ( $, .STERADIAN. ) SOLID_ANGLE_UNIT ( ) );
#172 = PERSON_AND_ORGANIZATION ( #158, #131 ) ;
#173 = APPROVAL ( #92, 'Î´Ö¸¶¨' ) ;
#174 = CC_DESIGN_DATE_AND_TIME_ASSIGNMENT ( #38, #97, ( #46 ) ) ;
#175 = CIRCLE ( 'NONE', #98, 15.00000000000000000 ) ;
#176 = APPROVAL_DATE_TIME ( #27, #200 ) ;
#177 = EDGE_LOOP ( 'NONE', ( #134, #114, #146 ) ) ;
#178 = CYLINDRICAL_SURFACE ( 'NONE', #8, 15.00000000000000000 ) ;
#179 = MANIFOLD_SOLID_BREP ( 'Ðý×ª1', #85 ) ;
#180 = ORIENTED_EDGE ( 'NONE', *, *, #198, .T. ) ;
#181 = CARTESIAN_POINT ( 'NONE',  ( 0.000000000000000000, -9.184850993605147944E-16, 0.000000000000000000 ) ) ;
#182 = ADVANCED_FACE ( 'NONE', ( #3 ), #123, .T. ) ;
#183 = PERSON_AND_ORGANIZATION ( #158, #131 ) ;
#184 = LOCAL_TIME ( 17, 12, 55.00000000000000000, #66 ) ;
#185 = DIRECTION ( 'NONE',  ( 0.000000000000000000, 0.000000000000000000, 1.000000000000000000 ) ) ;
#186 = PRODUCT_DEFINITION_SHAPE ( 'NONE', 'NONE',  #82 ) ;
#187 = VECTOR ( 'NONE', #138, 1000.000000000000000 ) ;
#188 = CARTESIAN_POINT ( 'NONE',  ( 0.000000000000000000, -1.734723475976807094E-15, 0.000000000000000000 ) ) ;
#189 = APPROVAL_STATUS ( 'not_yet_approved' ) ;
#190 =( NAMED_UNIT ( * ) PLANE_ANGLE_UNIT ( ) SI_UNIT ( $, .RADIAN. ) );
#191 = APPROVAL_DATE_TIME ( #96, #69 ) ;
#192 = PERSON_AND_ORGANIZATION ( #158, #131 ) ;
#193 = ORIENTED_EDGE ( 'NONE', *, *, #18, .F. ) ;
#194 = VERTEX_POINT ( 'NONE', #53 ) ;
#195 = AXIS2_PLACEMENT_3D ( 'NONE', #127, #6, #113 ) ;
#196 = VERTEX_POINT ( 'NONE', #111 ) ;
#197 = CARTESIAN_POINT ( 'NONE',  ( 0.000000000000000000, 2.499999999999998224, 0.000000000000000000 ) ) ;
#198 = EDGE_CURVE ( 'NONE', #73, #161, #14, .T. ) ;
#199 = CIRCLE ( 'NONE', #94, 103.2800000000000296 ) ;
#200 = APPROVAL ( #189, 'Î´Ö¸¶¨' ) ;
#201 = APPROVAL_ROLE ( '' ) ;
ENDSEC;
END-ISO-10303-21;
