ISO-10303-21;
HEADER;
FILE_DESCRIPTION (( 'STEP AP203' ),
    '1' );
FILE_NAME ('100593.STEP',
    '2024-05-10T01:49:43',
    ( '' ),
    ( '' ),
    'SwSTEP 2.0',
    'SolidWorks 2020',
    '' );
FILE_SCHEMA (( 'CONFIG_CONTROL_DESIGN' ));
ENDSEC;

DATA;
#1 = PLANE ( 'NONE',  #131 ) ;
#2 = DIRECTION ( 'NONE',  ( -1.000000000000000000, -6.938893903907228378E-17, 0.000000000000000000 ) ) ;
#3 = EDGE_CURVE ( 'NONE', #174, #184, #10, .T. ) ;
#4 = ORIENTED_EDGE ( 'NONE', *, *, #86, .F. ) ;
#5 = APPLICATION_PROTOCOL_DEFINITION ( 'international standard', 'config_control_design', 1994, #9 ) ;
#6 = CC_DESIGN_PERSON_AND_ORGANIZATION_ASSIGNMENT ( #44, #62, ( #29 ) ) ;
#7 = DATE_AND_TIME ( #109, #130 ) ;
#8 = PERSON_AND_ORGANIZATION_ROLE ( 'creator' ) ;
#9 = APPLICATION_CONTEXT ( 'configuration controlled 3d designs of mechanical parts and assemblies' ) ;
#10 = CIRCLE ( 'NONE', #82, 1292.000000000000000 ) ;
#11 = SHAPE_DEFINITION_REPRESENTATION ( #21, #144 ) ;
#12 = EDGE_LOOP ( 'NONE', ( #141, #16 ) ) ;
#13 = LOCAL_TIME ( 9, 49, 43.00000000000000000, #48 ) ;
#14 = AXIS2_PLACEMENT_3D ( 'NONE', #78, #148, #173 ) ;
#15 = CC_DESIGN_APPROVAL ( #155, ( #180 ) ) ;
#16 = ORIENTED_EDGE ( 'NONE', *, *, #138, .F. ) ;
#17 = APPLICATION_CONTEXT ( 'configuration controlled 3d designs of mechanical parts and assemblies' ) ;
#18 = DIRECTION ( 'NONE',  ( -6.029772521651172946E-17, 1.000000000000000000, -0.000000000000000000 ) ) ;
#19 = ADVANCED_FACE ( 'NONE', ( #87 ), #106, .T. ) ;
#20 = CARTESIAN_POINT ( 'NONE',  ( 0.000000000000000000, 0.000000000000000000, 0.000000000000000000 ) ) ;
#21 = PRODUCT_DEFINITION_SHAPE ( 'NONE', 'NONE',  #22 ) ;
#22 = PRODUCT_DEFINITION ( 'Î´Öª', '', #180, #51 ) ;
#23 = DIRECTION ( 'NONE',  ( -1.224646799147353207E-16, -7.384341618226773022E-33, 1.000000000000000000 ) ) ;
#24 = CARTESIAN_POINT ( 'NONE',  ( 4.814824860968089633E-32, -8.673617379884035472E-16, 0.000000000000000000 ) ) ;
#25 =( LENGTH_UNIT ( ) NAMED_UNIT ( * ) SI_UNIT ( .MILLI., .METRE. ) );
#26 = AXIS2_PLACEMENT_3D ( 'NONE', #175, #56, #2 ) ;
#27 = PERSON_AND_ORGANIZATION_ROLE ( 'design_owner' ) ;
#28 = DATE_TIME_ROLE ( 'classification_date' ) ;
#29 = SECURITY_CLASSIFICATION ( '', '', #192 ) ;
#30 = VECTOR ( 'NONE', #171, 1000.000000000000000 ) ;
#31 = APPROVAL_DATE_TIME ( #72, #181 ) ;
#32 = CC_DESIGN_PERSON_AND_ORGANIZATION_ASSIGNMENT ( #43, #125, ( #180 ) ) ;
#33 = ORIENTED_EDGE ( 'NONE', *, *, #3, .T. ) ;
#34 = CARTESIAN_POINT ( 'NONE',  ( -12.50000000000000000, 2.030999999999999250, 0.000000000000000000 ) ) ;
#35 =( NAMED_UNIT ( * ) PLANE_ANGLE_UNIT ( ) SI_UNIT ( $, .RADIAN. ) );
#36 = CARTESIAN_POINT ( 'NONE',  ( 4.814824860968089633E-32, -8.673617379884035472E-16, 0.000000000000000000 ) ) ;
#37 = LINE ( 'NONE', #34, #30 ) ;
#38 = CC_DESIGN_PERSON_AND_ORGANIZATION_ASSIGNMENT ( #123, #140, ( #22 ) ) ;
#39 = DIRECTION ( 'NONE',  ( -6.029772521651172946E-17, 1.000000000000000000, -0.000000000000000000 ) ) ;
#40 = CIRCLE ( 'NONE', #74, 12.50000000000000000 ) ;
#41 = CYLINDRICAL_SURFACE ( 'NONE', #113, 12.50000000000000000 ) ;
#42 = DIRECTION ( 'NONE',  ( -6.029772521651172946E-17, 1.000000000000000000, -0.000000000000000000 ) ) ;
#43 = PERSON_AND_ORGANIZATION ( #68, #105 ) ;
#44 = PERSON_AND_ORGANIZATION ( #68, #105 ) ;
#45 = ADVANCED_FACE ( 'NONE', ( #197 ), #1, .T. ) ;
#46 = COORDINATED_UNIVERSAL_TIME_OFFSET ( 8, 0, .AHEAD. ) ;
#47 = TOROIDAL_SURFACE ( 'NONE', #63, 3.045887344046957601, 1292.000000000000000 ) ;
#48 = COORDINATED_UNIVERSAL_TIME_OFFSET ( 8, 0, .AHEAD. ) ;
#49 = EDGE_CURVE ( 'NONE', #119, #174, #201, .T. ) ;
#50 = ORIENTED_EDGE ( 'NONE', *, *, #77, .T. ) ;
#51 = DESIGN_CONTEXT ( 'detailed design', #17, 'design' ) ;
#52 = DIRECTION ( 'NONE',  ( -6.029772521651172946E-17, 1.000000000000000000, -0.000000000000000000 ) ) ;
#53 = DIRECTION ( 'NONE',  ( -1.000000000000000000, -6.938893903907228378E-17, 0.000000000000000000 ) ) ;
#54 = LINE ( 'NONE', #117, #122 ) ;
#55 = CARTESIAN_POINT ( 'NONE',  ( 12.50000000000000000, -1.136401727820069043E-16, 1.530808498934191521E-15 ) ) ;
#56 = DIRECTION ( 'NONE',  ( -6.029772521651172946E-17, 1.000000000000000000, -0.000000000000000000 ) ) ;
#57 = DATE_AND_TIME ( #166, #157 ) ;
#58 = CLOSED_SHELL ( 'NONE', ( #133, #170, #19, #45, #159 ) ) ;
#59 = APPROVAL_STATUS ( 'not_yet_approved' ) ;
#60 = CC_DESIGN_PERSON_AND_ORGANIZATION_ASSIGNMENT ( #177, #8, ( #180 ) ) ;
#61 = COORDINATED_UNIVERSAL_TIME_OFFSET ( 8, 0, .AHEAD. ) ;
#62 = PERSON_AND_ORGANIZATION_ROLE ( 'classification_officer' ) ;
#63 = AXIS2_PLACEMENT_3D ( 'NONE', #200, #39, #69 ) ;
#64 = DIRECTION ( 'NONE',  ( 6.029772521651172946E-17, -1.000000000000000000, 0.000000000000000000 ) ) ;
#65 = CARTESIAN_POINT ( 'NONE',  ( -12.49999999999520917, 2.000000000000000000, 0.000000000000000000 ) ) ;
#66 = CIRCLE ( 'NONE', #142, 12.50000000000000000 ) ;
#67 = FACE_OUTER_BOUND ( 'NONE', #143, .T. ) ;
#68 = PERSON ( 'Î´Ö¸¶¨', 'Î´Ö¸¶¨', 'Î´Ö¸¶¨', ('Î´Ö¸¶¨'), ('Î´Ö¸¶¨'), ('Î´Ö¸¶¨') ) ;
#69 = DIRECTION ( 'NONE',  ( -1.000000000000000000, -6.029772521651172946E-17, 0.000000000000000000 ) ) ;
#70 = PERSON_AND_ORGANIZATION ( #68, #105 ) ;
#71 = APPROVAL_ROLE ( '' ) ;
#72 = DATE_AND_TIME ( #94, #13 ) ;
#73 = CC_DESIGN_APPROVAL ( #181, ( #22 ) ) ;
#74 = AXIS2_PLACEMENT_3D ( 'NONE', #182, #52, #114 ) ;
#75 = AXIS2_PLACEMENT_3D ( 'NONE', #20, #83, #85 ) ;
#76 = EDGE_LOOP ( 'NONE', ( #97, #145, #161, #179 ) ) ;
#77 = EDGE_CURVE ( 'NONE', #174, #119, #40, .T. ) ;
#78 = CARTESIAN_POINT ( 'NONE',  ( 7.806255641895631925E-14, -1289.965409658435419, 0.000000000000000000 ) ) ;
#79 = DIRECTION ( 'NONE',  ( 0.000000000000000000, -0.000000000000000000, -1.000000000000000000 ) ) ;
#80 = CARTESIAN_POINT ( 'NONE',  ( -1.224646799147353454E-16, 2.031000000000000139, 0.000000000000000000 ) ) ;
#81 = APPROVAL_PERSON_ORGANIZATION ( #70, #121, #91 ) ;
#82 = AXIS2_PLACEMENT_3D ( 'NONE', #99, #23, #134 ) ;
#83 = DIRECTION ( 'NONE',  ( 0.000000000000000000, 0.000000000000000000, 1.000000000000000000 ) ) ;
#84 = EDGE_LOOP ( 'NONE', ( #112, #50, #128 ) ) ;
#85 = DIRECTION ( 'NONE',  ( 1.000000000000000000, 0.000000000000000000, 0.000000000000000000 ) ) ;
#86 = EDGE_CURVE ( 'NONE', #147, #119, #37, .T. ) ;
#87 = FACE_OUTER_BOUND ( 'NONE', #84, .T. ) ;
#88 = FACE_OUTER_BOUND ( 'NONE', #76, .T. ) ;
#89 = PERSON_AND_ORGANIZATION ( #68, #105 ) ;
#90 = APPROVAL_DATE_TIME ( #57, #121 ) ;
#91 = APPROVAL_ROLE ( '' ) ;
#92 = APPROVAL_PERSON_ORGANIZATION ( #176, #155, #135 ) ;
#93 = AXIS2_PLACEMENT_3D ( 'NONE', #160, #79, #150 ) ;
#94 = CALENDAR_DATE ( 2024, 10, 5 ) ;
#95 = ORIENTED_EDGE ( 'NONE', *, *, #124, .T. ) ;
#96 = CC_DESIGN_SECURITY_CLASSIFICATION ( #29, ( #180 ) ) ;
#97 = ORIENTED_EDGE ( 'NONE', *, *, #124, .F. ) ;
#98 = CC_DESIGN_DATE_AND_TIME_ASSIGNMENT ( #154, #167, ( #22 ) ) ;
#99 = CARTESIAN_POINT ( 'NONE',  ( 3.045887344047035761, -1289.965409658435419, 3.730136186450539980E-16 ) ) ;
#100 = CARTESIAN_POINT ( 'NONE',  ( 2.342828719963012084E-32, -3.885434668638974885E-16, 0.000000000000000000 ) ) ;
#101 = CARTESIAN_POINT ( 'NONE',  ( -1.205954504330233850E-16, 1.999999999999999112, 0.000000000000000000 ) ) ;
#102 = CARTESIAN_POINT ( 'NONE',  ( 12.49999999999520917, 2.000000000000000888, 1.530808498933604609E-15 ) ) ;
#103 = DIRECTION ( 'NONE',  ( -1.000000000000000000, -6.029772521651172946E-17, 0.000000000000000000 ) ) ;
#104 = DIRECTION ( 'NONE',  ( -1.000000000000000000, -6.029772521651172946E-17, 0.000000000000000000 ) ) ;
#105 = ORGANIZATION ( 'Î´Ö¸¶¨', 'Î´Ö¸¶¨', '' ) ;
#106 = TOROIDAL_SURFACE ( 'NONE', #14, 3.045887344046957601, 1292.000000000000000 ) ;
#107 = COORDINATED_UNIVERSAL_TIME_OFFSET ( 8, 0, .AHEAD. ) ;
#108 = APPROVAL_DATE_TIME ( #136, #155 ) ;
#109 = CALENDAR_DATE ( 2024, 10, 5 ) ;
#110 = MANIFOLD_SOLID_BREP ( 'Ðý×ª1', #58 ) ;
#111 = AXIS2_PLACEMENT_3D ( 'NONE', #101, #18, #129 ) ;
#112 = ORIENTED_EDGE ( 'NONE', *, *, #3, .F. ) ;
#113 = AXIS2_PLACEMENT_3D ( 'NONE', #80, #42, #53 ) ;
#114 = DIRECTION ( 'NONE',  ( -1.000000000000000000, -6.938893903907228378E-17, 0.000000000000000000 ) ) ;
#115 = DIRECTION ( 'NONE',  ( -6.029772521651172946E-17, 1.000000000000000000, -0.000000000000000000 ) ) ;
#116 = UNCERTAINTY_MEASURE_WITH_UNIT (LENGTH_MEASURE( 1.000000000000000082E-05 ), #25, 'distance_accuracy_value', 'NONE');
#117 = CARTESIAN_POINT ( 'NONE',  ( 12.50000000000000000, 2.031000000000001027, 1.530808498934191521E-15 ) ) ;
#118 = EDGE_CURVE ( 'NONE', #119, #184, #127, .T. ) ;
#119 = VERTEX_POINT ( 'NONE', #65 ) ;
#120 = LOCAL_TIME ( 9, 49, 43.00000000000000000, #46 ) ;
#121 = APPROVAL ( #189, 'Î´Ö¸¶¨' ) ;
#122 = VECTOR ( 'NONE', #172, 1000.000000000000000 ) ;
#123 = PERSON_AND_ORGANIZATION ( #68, #105 ) ;
#124 = EDGE_CURVE ( 'NONE', #169, #174, #54, .T. ) ;
#125 = PERSON_AND_ORGANIZATION_ROLE ( 'design_supplier' ) ;
#126 = CALENDAR_DATE ( 2024, 10, 5 ) ;
#127 = CIRCLE ( 'NONE', #93, 1292.000000000000000 ) ;
#128 = ORIENTED_EDGE ( 'NONE', *, *, #118, .T. ) ;
#129 = DIRECTION ( 'NONE',  ( -1.000000000000000000, -6.938893903907228378E-17, 0.000000000000000000 ) ) ;
#130 = LOCAL_TIME ( 9, 49, 43.00000000000000000, #168 ) ;
#131 = AXIS2_PLACEMENT_3D ( 'NONE', #100, #64, #186 ) ;
#132 = FACE_OUTER_BOUND ( 'NONE', #158, .T. ) ;
#133 = ADVANCED_FACE ( 'NONE', ( #67 ), #41, .T. ) ;
#134 = DIRECTION ( 'NONE',  ( 1.000000000000000000, 0.000000000000000000, 1.224646799147353207E-16 ) ) ;
#135 = APPROVAL_ROLE ( '' ) ;
#136 = DATE_AND_TIME ( #126, #120 ) ;
#137 = CALENDAR_DATE ( 2024, 10, 5 ) ;
#138 = EDGE_CURVE ( 'NONE', #169, #147, #196, .T. ) ;
#139 = PERSON_AND_ORGANIZATION ( #68, #105 ) ;
#140 = PERSON_AND_ORGANIZATION_ROLE ( 'creator' ) ;
#141 = ORIENTED_EDGE ( 'NONE', *, *, #185, .F. ) ;
#142 = AXIS2_PLACEMENT_3D ( 'NONE', #24, #115, #104 ) ;
#143 = EDGE_LOOP ( 'NONE', ( #193, #95, #199, #4 ) ) ;
#144 = ADVANCED_BREP_SHAPE_REPRESENTATION ( '100593', ( #110, #75 ), #165 ) ;
#145 = ORIENTED_EDGE ( 'NONE', *, *, #138, .T. ) ;
#146 = CC_DESIGN_APPROVAL ( #121, ( #29 ) ) ;
#147 = VERTEX_POINT ( 'NONE', #149 ) ;
#148 = DIRECTION ( 'NONE',  ( -6.029772521651172946E-17, 1.000000000000000000, -0.000000000000000000 ) ) ;
#149 = CARTESIAN_POINT ( 'NONE',  ( -12.50000000000000000, -1.621083303194799993E-15, 0.000000000000000000 ) ) ;
#150 = DIRECTION ( 'NONE',  ( -1.000000000000000000, 0.000000000000000000, 0.000000000000000000 ) ) ;
#151 = MECHANICAL_CONTEXT ( 'NONE', #9, 'mechanical' ) ;
#152 = PRODUCT_RELATED_PRODUCT_CATEGORY ( 'detail', '', ( #163 ) ) ;
#153 = APPROVAL_STATUS ( 'not_yet_approved' ) ;
#154 = DATE_AND_TIME ( #137, #190 ) ;
#155 = APPROVAL ( #59, 'Î´Ö¸¶¨' ) ;
#156 = ORIENTED_EDGE ( 'NONE', *, *, #49, .T. ) ;
#157 = LOCAL_TIME ( 9, 49, 43.00000000000000000, #107 ) ;
#158 = EDGE_LOOP ( 'NONE', ( #156, #33, #178 ) ) ;
#159 = ADVANCED_FACE ( 'NONE', ( #88 ), #183, .T. ) ;
#160 = CARTESIAN_POINT ( 'NONE',  ( -3.045887344046879885, -1289.965409658435419, 0.000000000000000000 ) ) ;
#161 = ORIENTED_EDGE ( 'NONE', *, *, #86, .T. ) ;
#162 = CARTESIAN_POINT ( 'NONE',  ( -1.224646799147353454E-16, 2.031000000000000139, 0.000000000000000000 ) ) ;
#163 = PRODUCT ( '100593', '100593', '', ( #151 ) ) ;
#164 = DIRECTION ( 'NONE',  ( -6.029772521651172946E-17, 1.000000000000000000, -0.000000000000000000 ) ) ;
#165 =( GEOMETRIC_REPRESENTATION_CONTEXT ( 3 ) GLOBAL_UNCERTAINTY_ASSIGNED_CONTEXT ( ( #116 ) ) GLOBAL_UNIT_ASSIGNED_CONTEXT ( ( #25, #35, #198 ) ) REPRESENTATION_CONTEXT ( 'NONE', 'WORKASPACE' ) );
#166 = CALENDAR_DATE ( 2024, 10, 5 ) ;
#167 = DATE_TIME_ROLE ( 'creation_date' ) ;
#168 = COORDINATED_UNIVERSAL_TIME_OFFSET ( 8, 0, .AHEAD. ) ;
#169 = VERTEX_POINT ( 'NONE', #55 ) ;
#170 = ADVANCED_FACE ( 'NONE', ( #132 ), #47, .T. ) ;
#171 = DIRECTION ( 'NONE',  ( -6.029772521651172946E-17, 1.000000000000000000, -0.000000000000000000 ) ) ;
#172 = DIRECTION ( 'NONE',  ( -6.029772521651172946E-17, 1.000000000000000000, -0.000000000000000000 ) ) ;
#173 = DIRECTION ( 'NONE',  ( -1.000000000000000000, -6.029772521651172946E-17, 0.000000000000000000 ) ) ;
#174 = VERTEX_POINT ( 'NONE', #102 ) ;
#175 = CARTESIAN_POINT ( 'NONE',  ( -1.224646799147353454E-16, 2.031000000000000139, 0.000000000000000000 ) ) ;
#176 = PERSON_AND_ORGANIZATION ( #68, #105 ) ;
#177 = PERSON_AND_ORGANIZATION ( #68, #105 ) ;
#178 = ORIENTED_EDGE ( 'NONE', *, *, #118, .F. ) ;
#179 = ORIENTED_EDGE ( 'NONE', *, *, #77, .F. ) ;
#180 = PRODUCT_DEFINITION_FORMATION_WITH_SPECIFIED_SOURCE ( 'ÈÎºÎ', '', #163, .NOT_KNOWN. ) ;
#181 = APPROVAL ( #153, 'Î´Ö¸¶¨' ) ;
#182 = CARTESIAN_POINT ( 'NONE',  ( -1.205954504330233850E-16, 1.999999999999999112, 0.000000000000000000 ) ) ;
#183 = CYLINDRICAL_SURFACE ( 'NONE', #26, 12.50000000000000000 ) ;
#184 = VERTEX_POINT ( 'NONE', #162 ) ;
#185 = EDGE_CURVE ( 'NONE', #147, #169, #66, .T. ) ;
#186 = DIRECTION ( 'NONE',  ( 1.000000000000000000, 6.029772521651172946E-17, 0.000000000000000000 ) ) ;
#187 = APPROVAL_PERSON_ORGANIZATION ( #139, #181, #71 ) ;
#188 = CC_DESIGN_DATE_AND_TIME_ASSIGNMENT ( #7, #28, ( #29 ) ) ;
#189 = APPROVAL_STATUS ( 'not_yet_approved' ) ;
#190 = LOCAL_TIME ( 9, 49, 43.00000000000000000, #61 ) ;
#191 = APPLICATION_PROTOCOL_DEFINITION ( 'international standard', 'config_control_design', 1994, #17 ) ;
#192 = SECURITY_CLASSIFICATION_LEVEL ( 'unclassified' ) ;
#193 = ORIENTED_EDGE ( 'NONE', *, *, #185, .T. ) ;
#194 = AXIS2_PLACEMENT_3D ( 'NONE', #36, #164, #103 ) ;
#195 = CC_DESIGN_PERSON_AND_ORGANIZATION_ASSIGNMENT ( #89, #27, ( #163 ) ) ;
#196 = CIRCLE ( 'NONE', #194, 12.50000000000000000 ) ;
#197 = FACE_OUTER_BOUND ( 'NONE', #12, .T. ) ;
#198 =( NAMED_UNIT ( * ) SI_UNIT ( $, .STERADIAN. ) SOLID_ANGLE_UNIT ( ) );
#199 = ORIENTED_EDGE ( 'NONE', *, *, #49, .F. ) ;
#200 = CARTESIAN_POINT ( 'NONE',  ( 7.806255641895631925E-14, -1289.965409658435419, 0.000000000000000000 ) ) ;
#201 = CIRCLE ( 'NONE', #111, 12.50000000000000000 ) ;
ENDSEC;
END-ISO-10303-21;
