ISO-10303-21;
HEADER;
FILE_DESCRIPTION (( 'STEP AP203' ),
    '1' );
FILE_NAME ('100591.STEP',
    '2024-05-08T09:00:21',
    ( '' ),
    ( '' ),
    'SwSTEP 2.0',
    'SolidWorks 2020',
    '' );
FILE_SCHEMA (( 'CONFIG_CONTROL_DESIGN' ));
ENDSEC;

DATA;
#1 = CC_DESIGN_PERSON_AND_ORGANIZATION_ASSIGNMENT ( #198, #7, ( #193 ) ) ;
#2 = FACE_OUTER_BOUND ( 'NONE', #75, .T. ) ;
#3 = LOCAL_TIME ( 17, 0, 21.00000000000000000, #72 ) ;
#4 = PRODUCT_DEFINITION ( 'Î´Öª', '', #193, #185 ) ;
#5 = AXIS2_PLACEMENT_3D ( 'NONE', #174, #145, #109 ) ;
#6 = CALENDAR_DATE ( 2024, 8, 5 ) ;
#7 = PERSON_AND_ORGANIZATION_ROLE ( 'design_supplier' ) ;
#8 = DIRECTION ( 'NONE',  ( 1.000000000000000000, 0.000000000000000000, 0.000000000000000000 ) ) ;
#9 = COORDINATED_UNIVERSAL_TIME_OFFSET ( 8, 0, .AHEAD. ) ;
#10 = AXIS2_PLACEMENT_3D ( 'NONE', #62, #78, #142 ) ;
#11 = PERSON_AND_ORGANIZATION ( #53, #92 ) ;
#12 = DIRECTION ( 'NONE',  ( 1.430281086629005787E-17, 1.000000000000000000, -0.000000000000000000 ) ) ;
#13 = AXIS2_PLACEMENT_3D ( 'NONE', #126, #93, #36 ) ;
#14 = SECURITY_CLASSIFICATION ( '', '', #190 ) ;
#15 = VERTEX_POINT ( 'NONE', #18 ) ;
#16 = FACE_OUTER_BOUND ( 'NONE', #141, .T. ) ;
#17 = AXIS2_PLACEMENT_3D ( 'NONE', #108, #12, #57 ) ;
#18 = CARTESIAN_POINT ( 'NONE',  ( 3.000000000000004441, 1.549999999999999378, 3.673940397442064798E-16 ) ) ;
#19 = DIRECTION ( 'NONE',  ( -1.000000000000000000, 1.430281086629005787E-17, 0.000000000000000000 ) ) ;
#20 = ADVANCED_BREP_SHAPE_REPRESENTATION ( '100591', ( #137, #188 ), #48 ) ;
#21 = ORIENTED_EDGE ( 'NONE', *, *, #90, .F. ) ;
#22 = CC_DESIGN_DATE_AND_TIME_ASSIGNMENT ( #52, #83, ( #14 ) ) ;
#23 = PERSON_AND_ORGANIZATION ( #53, #92 ) ;
#24 = CARTESIAN_POINT ( 'NONE',  ( -3.000000000000000000, 4.290843259887017668E-17, 0.000000000000000000 ) ) ;
#25 = APPROVAL_ROLE ( '' ) ;
#26 = CARTESIAN_POINT ( 'NONE',  ( 3.000000000000000000, 1.899999999999999911, 3.673940397442059868E-16 ) ) ;
#27 = DATE_AND_TIME ( #68, #3 ) ;
#28 = DIRECTION ( 'NONE',  ( -1.000000000000000000, 1.430281086629005787E-17, 0.000000000000000000 ) ) ;
#29 = PRODUCT ( '100591', '100591', '', ( #165 ) ) ;
#30 = PERSON_AND_ORGANIZATION ( #53, #92 ) ;
#31 = AXIS2_PLACEMENT_3D ( 'NONE', #187, #45, #64 ) ;
#32 = EDGE_CURVE ( 'NONE', #184, #60, #173, .T. ) ;
#33 = CIRCLE ( 'NONE', #139, 3.000000000000000000 ) ;
#34 = ORIENTED_EDGE ( 'NONE', *, *, #160, .T. ) ;
#35 = LOCAL_TIME ( 17, 0, 21.00000000000000000, #135 ) ;
#36 = DIRECTION ( 'NONE',  ( -1.000000000000000000, 1.430281086629005787E-17, 0.000000000000000000 ) ) ;
#37 = CARTESIAN_POINT ( 'NONE',  ( 2.216935684274957906E-17, 1.549999999999999600, 0.000000000000000000 ) ) ;
#38 = ADVANCED_FACE ( 'NONE', ( #119 ), #171, .T. ) ;
#39 = CC_DESIGN_APPROVAL ( #63, ( #4 ) ) ;
#40 = APPLICATION_PROTOCOL_DEFINITION ( 'international standard', 'config_control_design', 1994, #186 ) ;
#41 = DATE_AND_TIME ( #6, #104 ) ;
#42 = CIRCLE ( 'NONE', #118, 12.91000000000000192 ) ;
#43 = ORIENTED_EDGE ( 'NONE', *, *, #144, .T. ) ;
#44 = CARTESIAN_POINT ( 'NONE',  ( 2.717534064595110656E-17, 1.899999999999999911, 0.000000000000000000 ) ) ;
#45 = DIRECTION ( 'NONE',  ( 1.430281086629005787E-17, 1.000000000000000000, -0.000000000000000000 ) ) ;
#46 = ORIENTED_EDGE ( 'NONE', *, *, #120, .T. ) ;
#47 = APPROVAL ( #49, 'Î´Ö¸¶¨' ) ;
#48 =( GEOMETRIC_REPRESENTATION_CONTEXT ( 3 ) GLOBAL_UNCERTAINTY_ASSIGNED_CONTEXT ( ( #58 ) ) GLOBAL_UNIT_ASSIGNED_CONTEXT ( ( #51, #166, #100 ) ) REPRESENTATION_CONTEXT ( 'NONE', 'WORKASPACE' ) );
#49 = APPROVAL_STATUS ( 'not_yet_approved' ) ;
#50 = COORDINATED_UNIVERSAL_TIME_OFFSET ( 8, 0, .AHEAD. ) ;
#51 =( LENGTH_UNIT ( ) NAMED_UNIT ( * ) SI_UNIT ( .MILLI., .METRE. ) );
#52 = DATE_AND_TIME ( #151, #35 ) ;
#53 = PERSON ( 'Î´Ö¸¶¨', 'Î´Ö¸¶¨', 'Î´Ö¸¶¨', ('Î´Ö¸¶¨'), ('Î´Ö¸¶¨'), ('Î´Ö¸¶¨') ) ;
#54 = CC_DESIGN_PERSON_AND_ORGANIZATION_ASSIGNMENT ( #152, #67, ( #29 ) ) ;
#55 = PERSON_AND_ORGANIZATION_ROLE ( 'classification_officer' ) ;
#56 = CARTESIAN_POINT ( 'NONE',  ( 2.717534064595110656E-17, 1.899999999999999911, 0.000000000000000000 ) ) ;
#57 = DIRECTION ( 'NONE',  ( -1.000000000000000000, 1.430281086629005787E-17, 0.000000000000000000 ) ) ;
#58 = UNCERTAINTY_MEASURE_WITH_UNIT (LENGTH_MEASURE( 1.000000000000000082E-05 ), #51, 'distance_accuracy_value', 'NONE');
#59 = CYLINDRICAL_SURFACE ( 'NONE', #31, 3.000000000000000000 ) ;
#60 = VERTEX_POINT ( 'NONE', #24 ) ;
#61 = ADVANCED_FACE ( 'NONE', ( #131 ), #143, .T. ) ;
#62 = CARTESIAN_POINT ( 'NONE',  ( -0.01425091764846843703, -11.00999213444168490, 0.000000000000000000 ) ) ;
#63 = APPROVAL ( #102, 'Î´Ö¸¶¨' ) ;
#64 = DIRECTION ( 'NONE',  ( -1.000000000000000000, 0.000000000000000000, 0.000000000000000000 ) ) ;
#65 = ORIENTED_EDGE ( 'NONE', *, *, #70, .T. ) ;
#66 = CC_DESIGN_APPROVAL ( #47, ( #193 ) ) ;
#67 = PERSON_AND_ORGANIZATION_ROLE ( 'design_owner' ) ;
#68 = CALENDAR_DATE ( 2024, 8, 5 ) ;
#69 = CARTESIAN_POINT ( 'NONE',  ( -3.068555980152974332E-34, -2.145421629943508834E-17, 0.000000000000000000 ) ) ;
#70 = EDGE_CURVE ( 'NONE', #15, #80, #42, .T. ) ;
#71 = DIRECTION ( 'NONE',  ( 1.000000000000000000, 0.000000000000000000, 1.224646799147353207E-16 ) ) ;
#72 = COORDINATED_UNIVERSAL_TIME_OFFSET ( 8, 0, .AHEAD. ) ;
#73 = AXIS2_PLACEMENT_3D ( 'NONE', #56, #155, #178 ) ;
#74 = ORIENTED_EDGE ( 'NONE', *, *, #194, .F. ) ;
#75 = EDGE_LOOP ( 'NONE', ( #43, #89, #163, #122 ) ) ;
#76 = AXIS2_PLACEMENT_3D ( 'NONE', #69, #117, #197 ) ;
#77 = ORIENTED_EDGE ( 'NONE', *, *, #144, .F. ) ;
#78 = DIRECTION ( 'NONE',  ( -0.000000000000000000, 0.000000000000000000, -1.000000000000000000 ) ) ;
#79 = AXIS2_PLACEMENT_3D ( 'NONE', #95, #162, #19 ) ;
#80 = VERTEX_POINT ( 'NONE', #44 ) ;
#81 = DIRECTION ( 'NONE',  ( -1.000000000000000000, 0.000000000000000000, 0.000000000000000000 ) ) ;
#82 = APPROVAL_PERSON_ORGANIZATION ( #149, #130, #129 ) ;
#83 = DATE_TIME_ROLE ( 'classification_date' ) ;
#84 = CC_DESIGN_PERSON_AND_ORGANIZATION_ASSIGNMENT ( #11, #132, ( #4 ) ) ;
#85 = LINE ( 'NONE', #26, #196 ) ;
#86 = COORDINATED_UNIVERSAL_TIME_OFFSET ( 8, 0, .AHEAD. ) ;
#87 = CARTESIAN_POINT ( 'NONE',  ( 0.01425091764846812131, -11.00999213444168490, 1.745234068310920254E-18 ) ) ;
#88 = AXIS2_PLACEMENT_3D ( 'NONE', #195, #116, #28 ) ;
#89 = ORIENTED_EDGE ( 'NONE', *, *, #194, .T. ) ;
#90 = EDGE_CURVE ( 'NONE', #15, #106, #33, .T. ) ;
#91 = EDGE_LOOP ( 'NONE', ( #74, #157, #34, #21 ) ) ;
#92 = ORGANIZATION ( 'Î´Ö¸¶¨', 'Î´Ö¸¶¨', '' ) ;
#93 = DIRECTION ( 'NONE',  ( 1.430281086629005787E-17, 1.000000000000000000, -0.000000000000000000 ) ) ;
#94 = ORIENTED_EDGE ( 'NONE', *, *, #98, .T. ) ;
#95 = CARTESIAN_POINT ( 'NONE',  ( 0.000000000000000000, 0.000000000000000000, 0.000000000000000000 ) ) ;
#96 = PERSON_AND_ORGANIZATION ( #53, #92 ) ;
#97 = CARTESIAN_POINT ( 'NONE',  ( 0.000000000000000000, 0.000000000000000000, 0.000000000000000000 ) ) ;
#98 = EDGE_CURVE ( 'NONE', #106, #15, #182, .T. ) ;
#99 = ADVANCED_FACE ( 'NONE', ( #16 ), #111, .T. ) ;
#100 =( NAMED_UNIT ( * ) SI_UNIT ( $, .STERADIAN. ) SOLID_ANGLE_UNIT ( ) );
#101 = CALENDAR_DATE ( 2024, 8, 5 ) ;
#102 = APPROVAL_STATUS ( 'not_yet_approved' ) ;
#103 = PRODUCT_DEFINITION_SHAPE ( 'NONE', 'NONE',  #4 ) ;
#104 = LOCAL_TIME ( 17, 0, 21.00000000000000000, #9 ) ;
#105 = APPLICATION_CONTEXT ( 'configuration controlled 3d designs of mechanical parts and assemblies' ) ;
#106 = VERTEX_POINT ( 'NONE', #159 ) ;
#107 = DIRECTION ( 'NONE',  ( 1.430281086629005787E-17, 1.000000000000000000, -0.000000000000000000 ) ) ;
#108 = CARTESIAN_POINT ( 'NONE',  ( 0.000000000000000000, 0.000000000000000000, 0.000000000000000000 ) ) ;
#109 = DIRECTION ( 'NONE',  ( -1.000000000000000000, 0.000000000000000000, 0.000000000000000000 ) ) ;
#110 = ORIENTED_EDGE ( 'NONE', *, *, #70, .F. ) ;
#111 = TOROIDAL_SURFACE ( 'NONE', #13, 0.01425091764846827917, 12.91000000000000192 ) ;
#112 = APPROVAL_DATE_TIME ( #189, #130 ) ;
#113 = DIRECTION ( 'NONE',  ( 1.430281086629005787E-17, 1.000000000000000000, -0.000000000000000000 ) ) ;
#114 = PERSON_AND_ORGANIZATION_ROLE ( 'creator' ) ;
#115 = CALENDAR_DATE ( 2024, 8, 5 ) ;
#116 = DIRECTION ( 'NONE',  ( 1.430281086629005787E-17, 1.000000000000000000, -0.000000000000000000 ) ) ;
#117 = DIRECTION ( 'NONE',  ( -1.430281086629005787E-17, -1.000000000000000000, 0.000000000000000000 ) ) ;
#118 = AXIS2_PLACEMENT_3D ( 'NONE', #87, #200, #71 ) ;
#119 = FACE_OUTER_BOUND ( 'NONE', #91, .T. ) ;
#120 = EDGE_CURVE ( 'NONE', #106, #80, #153, .T. ) ;
#121 = CIRCLE ( 'NONE', #79, 3.000000000000000000 ) ;
#122 = ORIENTED_EDGE ( 'NONE', *, *, #160, .F. ) ;
#123 = LINE ( 'NONE', #183, #170 ) ;
#124 = ORIENTED_EDGE ( 'NONE', *, *, #32, .F. ) ;
#125 = LOCAL_TIME ( 17, 0, 21.00000000000000000, #50 ) ;
#126 = CARTESIAN_POINT ( 'NONE',  ( -1.575481281892998631E-16, -11.00999213444168490, 0.000000000000000000 ) ) ;
#127 = ADVANCED_FACE ( 'NONE', ( #2 ), #59, .T. ) ;
#128 = CC_DESIGN_APPROVAL ( #130, ( #14 ) ) ;
#129 = APPROVAL_ROLE ( '' ) ;
#130 = APPROVAL ( #199, 'Î´Ö¸¶¨' ) ;
#131 = FACE_OUTER_BOUND ( 'NONE', #140, .T. ) ;
#132 = PERSON_AND_ORGANIZATION_ROLE ( 'creator' ) ;
#133 = APPLICATION_PROTOCOL_DEFINITION ( 'international standard', 'config_control_design', 1994, #105 ) ;
#134 = LOCAL_TIME ( 17, 0, 21.00000000000000000, #86 ) ;
#135 = COORDINATED_UNIVERSAL_TIME_OFFSET ( 8, 0, .AHEAD. ) ;
#136 = CC_DESIGN_PERSON_AND_ORGANIZATION_ASSIGNMENT ( #179, #55, ( #14 ) ) ;
#137 = MANIFOLD_SOLID_BREP ( 'Ðý×ª1', #156 ) ;
#138 = ORIENTED_EDGE ( 'NONE', *, *, #120, .F. ) ;
#139 = AXIS2_PLACEMENT_3D ( 'NONE', #37, #176, #81 ) ;
#140 = EDGE_LOOP ( 'NONE', ( #94, #65, #138 ) ) ;
#141 = EDGE_LOOP ( 'NONE', ( #110, #175, #46 ) ) ;
#142 = DIRECTION ( 'NONE',  ( -1.000000000000000000, 0.000000000000000000, 0.000000000000000000 ) ) ;
#143 = TOROIDAL_SURFACE ( 'NONE', #88, 0.01425091764846827917, 12.91000000000000192 ) ;
#144 = EDGE_CURVE ( 'NONE', #60, #184, #121, .T. ) ;
#145 = DIRECTION ( 'NONE',  ( 1.430281086629005787E-17, 1.000000000000000000, -0.000000000000000000 ) ) ;
#146 = EDGE_LOOP ( 'NONE', ( #77, #124 ) ) ;
#147 = APPROVAL_ROLE ( '' ) ;
#148 = APPROVAL_PERSON_ORGANIZATION ( #23, #47, #147 ) ;
#149 = PERSON_AND_ORGANIZATION ( #53, #92 ) ;
#150 = CARTESIAN_POINT ( 'NONE',  ( 3.000000000000000000, -4.290843259887017668E-17, 3.673940397442059868E-16 ) ) ;
#151 = CALENDAR_DATE ( 2024, 8, 5 ) ;
#152 = PERSON_AND_ORGANIZATION ( #53, #92 ) ;
#153 = CIRCLE ( 'NONE', #10, 12.91000000000000192 ) ;
#154 = SHAPE_DEFINITION_REPRESENTATION ( #103, #20 ) ;
#155 = DIRECTION ( 'NONE',  ( 1.430281086629005787E-17, 1.000000000000000000, -0.000000000000000000 ) ) ;
#156 = CLOSED_SHELL ( 'NONE', ( #127, #61, #99, #191, #38 ) ) ;
#157 = ORIENTED_EDGE ( 'NONE', *, *, #32, .T. ) ;
#158 = CC_DESIGN_SECURITY_CLASSIFICATION ( #14, ( #193 ) ) ;
#159 = CARTESIAN_POINT ( 'NONE',  ( -3.000000000000004441, 1.549999999999999378, 0.000000000000000000 ) ) ;
#160 = EDGE_CURVE ( 'NONE', #60, #106, #123, .T. ) ;
#161 = PRODUCT_RELATED_PRODUCT_CATEGORY ( 'detail', '', ( #29 ) ) ;
#162 = DIRECTION ( 'NONE',  ( 1.430281086629005787E-17, 1.000000000000000000, -0.000000000000000000 ) ) ;
#163 = ORIENTED_EDGE ( 'NONE', *, *, #98, .F. ) ;
#164 = DATE_TIME_ROLE ( 'creation_date' ) ;
#165 = MECHANICAL_CONTEXT ( 'NONE', #186, 'mechanical' ) ;
#166 =( NAMED_UNIT ( * ) PLANE_ANGLE_UNIT ( ) SI_UNIT ( $, .RADIAN. ) );
#167 = PLANE ( 'NONE',  #76 ) ;
#168 = DATE_AND_TIME ( #101, #134 ) ;
#169 = APPROVAL_DATE_TIME ( #27, #63 ) ;
#170 = VECTOR ( 'NONE', #107, 1000.000000000000000 ) ;
#171 = CYLINDRICAL_SURFACE ( 'NONE', #73, 3.000000000000000000 ) ;
#172 = CC_DESIGN_DATE_AND_TIME_ASSIGNMENT ( #168, #164, ( #4 ) ) ;
#173 = CIRCLE ( 'NONE', #17, 3.000000000000000000 ) ;
#174 = CARTESIAN_POINT ( 'NONE',  ( 2.216935684274957906E-17, 1.549999999999999600, 0.000000000000000000 ) ) ;
#175 = ORIENTED_EDGE ( 'NONE', *, *, #90, .T. ) ;
#176 = DIRECTION ( 'NONE',  ( 1.430281086629005787E-17, 1.000000000000000000, -0.000000000000000000 ) ) ;
#177 = DIRECTION ( 'NONE',  ( 0.000000000000000000, 0.000000000000000000, 1.000000000000000000 ) ) ;
#178 = DIRECTION ( 'NONE',  ( -1.000000000000000000, 0.000000000000000000, 0.000000000000000000 ) ) ;
#179 = PERSON_AND_ORGANIZATION ( #53, #92 ) ;
#180 = FACE_OUTER_BOUND ( 'NONE', #146, .T. ) ;
#181 = CC_DESIGN_PERSON_AND_ORGANIZATION_ASSIGNMENT ( #30, #114, ( #193 ) ) ;
#182 = CIRCLE ( 'NONE', #5, 3.000000000000000000 ) ;
#183 = CARTESIAN_POINT ( 'NONE',  ( -3.000000000000000000, 1.899999999999999911, 0.000000000000000000 ) ) ;
#184 = VERTEX_POINT ( 'NONE', #150 ) ;
#185 = DESIGN_CONTEXT ( 'detailed design', #105, 'design' ) ;
#186 = APPLICATION_CONTEXT ( 'configuration controlled 3d designs of mechanical parts and assemblies' ) ;
#187 = CARTESIAN_POINT ( 'NONE',  ( 2.717534064595110656E-17, 1.899999999999999911, 0.000000000000000000 ) ) ;
#188 = AXIS2_PLACEMENT_3D ( 'NONE', #97, #177, #8 ) ;
#189 = DATE_AND_TIME ( #115, #125 ) ;
#190 = SECURITY_CLASSIFICATION_LEVEL ( 'unclassified' ) ;
#191 = ADVANCED_FACE ( 'NONE', ( #180 ), #167, .T. ) ;
#192 = APPROVAL_DATE_TIME ( #41, #47 ) ;
#193 = PRODUCT_DEFINITION_FORMATION_WITH_SPECIFIED_SOURCE ( 'ÈÎºÎ', '', #29, .NOT_KNOWN. ) ;
#194 = EDGE_CURVE ( 'NONE', #184, #15, #85, .T. ) ;
#195 = CARTESIAN_POINT ( 'NONE',  ( -1.575481281892998631E-16, -11.00999213444168490, 0.000000000000000000 ) ) ;
#196 = VECTOR ( 'NONE', #113, 1000.000000000000000 ) ;
#197 = DIRECTION ( 'NONE',  ( 1.000000000000000000, -1.430281086629005787E-17, 0.000000000000000000 ) ) ;
#198 = PERSON_AND_ORGANIZATION ( #53, #92 ) ;
#199 = APPROVAL_STATUS ( 'not_yet_approved' ) ;
#200 = DIRECTION ( 'NONE',  ( -1.224646799147353207E-16, 1.751589154621210005E-33, 1.000000000000000000 ) ) ;
#201 = APPROVAL_PERSON_ORGANIZATION ( #96, #63, #25 ) ;
ENDSEC;
END-ISO-10303-21;
