ISO-10303-21;
HEADER;
FILE_DESCRIPTION (( 'STEP AP203' ),
    '1' );
FILE_NAME ('110104.STEP',
    '2019-07-08T07:40:24',
    ( '' ),
    ( '' ),
    'SwSTEP 2.0',
    'SolidWorks 2016',
    '' );
FILE_SCHEMA (( 'CONFIG_CONTROL_DESIGN' ));
ENDSEC;

DATA;
#1 = PERSON_AND_ORGANIZATION ( #64, #236 ) ;
#2 = CC_DESIGN_PERSON_AND_ORGANIZATION_ASSIGNMENT ( #112, #19, ( #250 ) ) ;
#3 = PERSON_AND_ORGANIZATION ( #64, #236 ) ;
#4 = APPROVAL_DATE_TIME ( #217, #176 ) ;
#5 = DIRECTION ( 'NONE',  ( 0.0000000000000000000, 1.000000000000000000, 0.0000000000000000000 ) ) ;
#6 = ORIENTED_EDGE ( 'NONE', *, *, #80, .T. ) ;
#7 = AXIS2_PLACEMENT_3D ( 'NONE', #164, #83, #274 ) ;
#8 = DIRECTION ( 'NONE',  ( -1.000000000000000000, -0.0000000000000000000, -0.0000000000000000000 ) ) ;
#9 = DATE_AND_TIME ( #81, #54 ) ;
#10 = ORIENTED_EDGE ( 'NONE', *, *, #108, .F. ) ;
#11 = PERSON_AND_ORGANIZATION_ROLE ( 'creator' ) ;
#12 = APPROVAL_ROLE ( '' ) ;
#13 = DIRECTION ( 'NONE',  ( -1.000000000000000000, -0.0000000000000000000, -0.0000000000000000000 ) ) ;
#14 = DATE_AND_TIME ( #84, #145 ) ;
#15 = CIRCLE ( 'NONE', #130, 25.39999999999929900 ) ;
#16 = DIRECTION ( 'NONE',  ( 0.0000000000000000000, 1.000000000000000000, 0.0000000000000000000 ) ) ;
#17 = ADVANCED_FACE ( 'NONE', ( #191 ), #247, .T. ) ;
#18 = DIRECTION ( 'NONE',  ( 0.0000000000000000000, 0.0000000000000000000, 1.000000000000000000 ) ) ;
#19 = PERSON_AND_ORGANIZATION_ROLE ( 'design_supplier' ) ;
#20 = DATE_AND_TIME ( #269, #68 ) ;
#21 = PERSON_AND_ORGANIZATION_ROLE ( 'creator' ) ;
#22 = AXIS2_PLACEMENT_3D ( 'NONE', #149, #304, #178 ) ;
#23 = AXIS2_PLACEMENT_3D ( 'NONE', #174, #143, #147 ) ;
#24 = APPROVAL_PERSON_ORGANIZATION ( #243, #317, #184 ) ;
#25 = AXIS2_PLACEMENT_3D ( 'NONE', #252, #277, #111 ) ;
#26 = APPROVAL ( #188, 'Î´Ö¸¶¨' ) ;
#27 = COORDINATED_UNIVERSAL_TIME_OFFSET ( 8, 0, .AHEAD. ) ;
#28 = CC_DESIGN_PERSON_AND_ORGANIZATION_ASSIGNMENT ( #235, #11, ( #279 ) ) ;
#29 = CARTESIAN_POINT ( 'NONE',  ( 233.6838934530326500, 97.23222604636886500, 0.0000000000000000000 ) ) ;
#30 = PRODUCT_RELATED_PRODUCT_CATEGORY ( 'detail', '', ( #177 ) ) ;
#31 = CALENDAR_DATE ( 2019, 8, 7 ) ;
#32 = UNCERTAINTY_MEASURE_WITH_UNIT (LENGTH_MEASURE( 1.000000000000000100E-005 ), #233, 'distance_accuracy_value', 'NONE');
#33 = CARTESIAN_POINT ( 'NONE',  ( 174.1663868636107700, 97.23222604636954700, 0.0000000000000000000 ) ) ;
#34 = EDGE_LOOP ( 'NONE', ( #313, #219, #294, #226 ) ) ;
#35 = CARTESIAN_POINT ( 'NONE',  ( 233.6838934530326500, 97.23222604636886500, 0.0000000000000000000 ) ) ;
#36 = CARTESIAN_POINT ( 'NONE',  ( 179.1629734154551800, 97.23222604636859500, 0.0000000000000000000 ) ) ;
#37 = APPROVAL_STATUS ( 'not_yet_approved' ) ;
#38 = PERSON_AND_ORGANIZATION ( #64, #236 ) ;
#39 = CIRCLE ( 'NONE', #7, 25.39999999999929900 ) ;
#40 = DIRECTION ( 'NONE',  ( 1.000000000000000000, 0.0000000000000000000, 0.0000000000000000000 ) ) ;
#41 = DIRECTION ( 'NONE',  ( 0.0000000000000000000, 1.000000000000000000, 1.224646799147353200E-016 ) ) ;
#42 = DIRECTION ( 'NONE',  ( 0.0000000000000000000, 0.0000000000000000000, 1.000000000000000000 ) ) ;
#43 = DATE_AND_TIME ( #31, #330 ) ;
#44 = AXIS2_PLACEMENT_3D ( 'NONE', #29, #257, #88 ) ;
#45 = ORIENTED_EDGE ( 'NONE', *, *, #150, .T. ) ;
#46 = DATE_TIME_ROLE ( 'classification_date' ) ;
#47 = CALENDAR_DATE ( 2019, 8, 7 ) ;
#48 = CIRCLE ( 'NONE', #167, 25.39999999999997700 ) ;
#49 = CC_DESIGN_DATE_AND_TIME_ASSIGNMENT ( #280, #332, ( #279 ) ) ;
#50 = ORIENTED_EDGE ( 'NONE', *, *, #51, .F. ) ;
#51 = EDGE_CURVE ( 'NONE', #85, #115, #39, .T. ) ;
#52 = DIRECTION ( 'NONE',  ( 0.0000000000000000000, 0.0000000000000000000, 1.000000000000000000 ) ) ;
#53 = APPROVAL_DATE_TIME ( #43, #99 ) ;
#54 = LOCAL_TIME ( 15, 40, 24.00000000000000000, #125 ) ;
#55 = CIRCLE ( 'NONE', #25, 25.39999999999929900 ) ;
#56 = EDGE_CURVE ( 'NONE', #168, #85, #55, .T. ) ;
#57 = LOCAL_TIME ( 15, 40, 24.00000000000000000, #253 ) ;
#58 = CYLINDRICAL_SURFACE ( 'NONE', #59, 25.39999999999964000 ) ;
#59 = AXIS2_PLACEMENT_3D ( 'NONE', #140, #328, #169 ) ;
#60 = DIRECTION ( 'NONE',  ( 1.000000000000000000, 0.0000000000000000000, 0.0000000000000000000 ) ) ;
#61 = LOCAL_TIME ( 15, 40, 24.00000000000000000, #207 ) ;
#62 = EDGE_LOOP ( 'NONE', ( #319, #308, #137, #223 ) ) ;
#63 = DIRECTION ( 'NONE',  ( 0.0000000000000000000, 1.224646799147353200E-016, -1.000000000000000000 ) ) ;
#64 = PERSON ( 'Î´Ö¸¶¨', 'Î´Ö¸¶¨', 'Î´Ö¸¶¨', ('Î´Ö¸¶¨'), ('Î´Ö¸¶¨'), ('Î´Ö¸¶¨') ) ;
#65 = CARTESIAN_POINT ( 'NONE',  ( 174.1663868636107700, 97.23222604636954700, 0.0000000000000000000 ) ) ;
#66 = APPROVAL ( #171, 'Î´Ö¸¶¨' ) ;
#67 = DESIGN_CONTEXT ( 'detailed design', #306, 'design' ) ;
#68 = LOCAL_TIME ( 15, 40, 24.00000000000000000, #76 ) ;
#69 = CIRCLE ( 'NONE', #187, 25.39999999999997700 ) ;
#70 = CARTESIAN_POINT ( 'NONE',  ( 171.6663882350393400, 122.6322260463688700, 0.0000000000000000000 ) ) ;
#71 = CARTESIAN_POINT ( 'NONE',  ( 233.6838934530326500, 97.23222604636886500, 0.0000000000000000000 ) ) ;
#72 = CC_DESIGN_DATE_AND_TIME_ASSIGNMENT ( #20, #75, ( #148 ) ) ;
#73 = EDGE_CURVE ( 'NONE', #341, #168, #15, .T. ) ;
#74 = CALENDAR_DATE ( 2019, 8, 7 ) ;
#75 = DATE_TIME_ROLE ( 'creation_date' ) ;
#76 = COORDINATED_UNIVERSAL_TIME_OFFSET ( 8, 0, .AHEAD. ) ;
#77 = CC_DESIGN_APPROVAL ( #181, ( #136 ) ) ;
#78 = ORIENTED_EDGE ( 'NONE', *, *, #94, .T. ) ;
#79 = ORIENTED_EDGE ( 'NONE', *, *, #267, .T. ) ;
#80 = EDGE_CURVE ( 'NONE', #290, #220, #69, .T. ) ;
#81 = CALENDAR_DATE ( 2019, 8, 7 ) ;
#82 = EDGE_LOOP ( 'NONE', ( #232, #156, #79, #10 ) ) ;
#83 = DIRECTION ( 'NONE',  ( -1.000000000000000000, -0.0000000000000000000, -0.0000000000000000000 ) ) ;
#84 = CALENDAR_DATE ( 2019, 8, 7 ) ;
#85 = VERTEX_POINT ( 'NONE', #303 ) ;
#86 = CC_DESIGN_APPROVAL ( #66, ( #250 ) ) ;
#87 = DIRECTION ( 'NONE',  ( 0.0000000000000000000, 0.0000000000000000000, 1.000000000000000000 ) ) ;
#88 = DIRECTION ( 'NONE',  ( 0.0000000000000000000, 1.000000000000000000, 0.0000000000000000000 ) ) ;
#89 = DATE_AND_TIME ( #160, #241 ) ;
#90 = DIRECTION ( 'NONE',  ( 0.0000000000000000000, 1.224646799147353200E-016, -1.000000000000000000 ) ) ;
#91 = EDGE_CURVE ( 'NONE', #220, #227, #165, .T. ) ;
#92 = CARTESIAN_POINT ( 'NONE',  ( 112.1046056460918700, 97.23222604636859500, 0.0000000000000000000 ) ) ;
#93 = MECHANICAL_CONTEXT ( 'NONE', #291, 'mechanical' ) ;
#94 = EDGE_CURVE ( 'NONE', #227, #115, #316, .T. ) ;
#95 = APPROVAL_PERSON_ORGANIZATION ( #141, #176, #170 ) ;
#96 = CIRCLE ( 'NONE', #224, 67.05836776936330100 ) ;
#97 = EDGE_LOOP ( 'NONE', ( #107, #325, #198, #152 ) ) ;
#98 = CARTESIAN_POINT ( 'NONE',  ( 174.1663868636107700, 71.83222604636907200, -3.110602869834218500E-015 ) ) ;
#99 = APPROVAL ( #182, 'Î´Ö¸¶¨' ) ;
#100 =( NAMED_UNIT ( * ) PLANE_ANGLE_UNIT ( ) SI_UNIT ( $, .RADIAN. ) );
#101 = APPLICATION_CONTEXT ( 'configuration controlled 3d designs of mechanical parts and assemblies' ) ;
#102 = AXIS2_PLACEMENT_3D ( 'NONE', #35, #230, #60 ) ;
#103 = ADVANCED_FACE ( 'NONE', ( #282 ), #270, .T. ) ;
#104 = LINE ( 'NONE', #144, #201 ) ;
#105 = SECURITY_CLASSIFICATION_LEVEL ( 'unclassified' ) ;
#106 = PERSON_AND_ORGANIZATION ( #64, #236 ) ;
#107 = ORIENTED_EDGE ( 'NONE', *, *, #240, .F. ) ;
#108 = EDGE_CURVE ( 'NONE', #341, #324, #249, .T. ) ;
#109 = VERTEX_POINT ( 'NONE', #36 ) ;
#110 = EDGE_CURVE ( 'NONE', #109, #220, #209, .T. ) ;
#111 = DIRECTION ( 'NONE',  ( 0.0000000000000000000, 0.0000000000000000000, 1.000000000000000000 ) ) ;
#112 = PERSON_AND_ORGANIZATION ( #64, #236 ) ;
#113 = AXIS2_PLACEMENT_3D ( 'NONE', #264, #237, #18 ) ;
#114 = DIRECTION ( 'NONE',  ( 0.0000000000000000000, 0.0000000000000000000, 1.000000000000000000 ) ) ;
#115 = VERTEX_POINT ( 'NONE', #285 ) ;
#116 = CARTESIAN_POINT ( 'NONE',  ( 171.6663882350393400, 97.23222604636954700, -25.39999999999929900 ) ) ;
#117 = DIRECTION ( 'NONE',  ( -0.0000000000000000000, 0.0000000000000000000, -1.000000000000000000 ) ) ;
#118 = COORDINATED_UNIVERSAL_TIME_OFFSET ( 8, 0, .AHEAD. ) ;
#119 = FACE_OUTER_BOUND ( 'NONE', #62, .T. ) ;
#120 = CC_DESIGN_APPROVAL ( #176, ( #279 ) ) ;
#121 = EDGE_LOOP ( 'NONE', ( #129, #6, #146, #78, #50, #310 ) ) ;
#122 = APPROVAL_STATUS ( 'not_yet_approved' ) ;
#123 = ADVANCED_FACE ( 'NONE', ( #265 ), #58, .T. ) ;
#124 = CC_DESIGN_PERSON_AND_ORGANIZATION_ASSIGNMENT ( #200, #268, ( #234 ) ) ;
#125 = COORDINATED_UNIVERSAL_TIME_OFFSET ( 8, 0, .AHEAD. ) ;
#126 = ORIENTED_EDGE ( 'NONE', *, *, #255, .F. ) ;
#127 = DATE_AND_TIME ( #74, #194 ) ;
#128 = SPHERICAL_SURFACE ( 'NONE', #192, 67.05836776936330100 ) ;
#129 = ORIENTED_EDGE ( 'NONE', *, *, #244, .F. ) ;
#130 = AXIS2_PLACEMENT_3D ( 'NONE', #320, #159, #193 ) ;
#131 = APPROVAL_DATE_TIME ( #89, #26 ) ;
#132 = CARTESIAN_POINT ( 'NONE',  ( 165.7441079421506600, 97.23222604636954700, 0.0000000000000000000 ) ) ;
#133 = CC_DESIGN_SECURITY_CLASSIFICATION ( #136, ( #250 ) ) ;
#134 = DIRECTION ( 'NONE',  ( 0.0000000000000000000, 0.0000000000000000000, 1.000000000000000000 ) ) ;
#135 = APPROVAL_PERSON_ORGANIZATION ( #321, #66, #12 ) ;
#136 = SECURITY_CLASSIFICATION ( '', '', #246 ) ;
#137 = ORIENTED_EDGE ( 'NONE', *, *, #295, .F. ) ;
#138 = DIRECTION ( 'NONE',  ( -1.000000000000000000, -0.0000000000000000000, -0.0000000000000000000 ) ) ;
#139 = CARTESIAN_POINT ( 'NONE',  ( 174.1663868636107700, 97.23222604636954700, 0.0000000000000000000 ) ) ;
#140 = CARTESIAN_POINT ( 'NONE',  ( 165.7441079421506600, 97.23222604636954700, 0.0000000000000000000 ) ) ;
#141 = PERSON_AND_ORGANIZATION ( #64, #236 ) ;
#142 = APPLICATION_PROTOCOL_DEFINITION ( 'international standard', 'config_control_design', 1994, #291 ) ;
#143 = DIRECTION ( 'NONE',  ( -0.0000000000000000000, 0.0000000000000000000, -1.000000000000000000 ) ) ;
#144 = CARTESIAN_POINT ( 'NONE',  ( 165.7441079421506600, 97.23222604636954700, -25.39999999999964000 ) ) ;
#145 = LOCAL_TIME ( 15, 40, 24.00000000000000000, #275 ) ;
#146 = ORIENTED_EDGE ( 'NONE', *, *, #91, .T. ) ;
#147 = DIRECTION ( 'NONE',  ( 0.0000000000000000000, 1.000000000000000000, 0.0000000000000000000 ) ) ;
#148 = PRODUCT_DEFINITION ( 'Î´Öª', '', #158, #284 ) ;
#149 = CARTESIAN_POINT ( 'NONE',  ( 0.0000000000000000000, 0.0000000000000000000, 0.0000000000000000000 ) ) ;
#150 = EDGE_CURVE ( 'NONE', #331, #290, #48, .T. ) ;
#151 = DATE_AND_TIME ( #163, #61 ) ;
#152 = ORIENTED_EDGE ( 'NONE', *, *, #150, .F. ) ;
#153 = MECHANICAL_CONTEXT ( 'NONE', #101, 'mechanical' ) ;
#154 = CC_DESIGN_PERSON_AND_ORGANIZATION_ASSIGNMENT ( #231, #266, ( #158 ) ) ;
#155 = LOCAL_TIME ( 15, 40, 24.00000000000000000, #118 ) ;
#156 = ORIENTED_EDGE ( 'NONE', *, *, #56, .T. ) ;
#157 = AXIS2_PLACEMENT_3D ( 'NONE', #199, #90, #281 ) ;
#158 = PRODUCT_DEFINITION_FORMATION_WITH_SPECIFIED_SOURCE ( 'ÈÎºÎ', '', #177, .NOT_KNOWN. ) ;
#159 = DIRECTION ( 'NONE',  ( -1.000000000000000000, -0.0000000000000000000, -0.0000000000000000000 ) ) ;
#160 = CALENDAR_DATE ( 2019, 8, 7 ) ;
#161 = CC_DESIGN_DATE_AND_TIME_ASSIGNMENT ( #127, #46, ( #136 ) ) ;
#162 = AXIS2_PLACEMENT_3D ( 'NONE', #132, #278, #52 ) ;
#163 = CALENDAR_DATE ( 2019, 8, 7 ) ;
#164 = CARTESIAN_POINT ( 'NONE',  ( 171.6663882350393400, 97.23222604636954700, 0.0000000000000000000 ) ) ;
#165 = CIRCLE ( 'NONE', #204, 25.39999999999997700 ) ;
#166 = CARTESIAN_POINT ( 'NONE',  ( 174.1663868636107700, 97.23222604636954700, 0.0000000000000000000 ) ) ;
#167 = AXIS2_PLACEMENT_3D ( 'NONE', #166, #254, #134 ) ;
#168 = VERTEX_POINT ( 'NONE', #116 ) ;
#169 = DIRECTION ( 'NONE',  ( 0.0000000000000000000, 0.0000000000000000000, 1.000000000000000000 ) ) ;
#170 = APPROVAL_ROLE ( '' ) ;
#171 = APPROVAL_STATUS ( 'not_yet_approved' ) ;
#172 = LOCAL_TIME ( 15, 40, 24.00000000000000000, #27 ) ;
#173 = SPHERICAL_SURFACE ( 'NONE', #23, 67.05836776936330100 ) ;
#174 = CARTESIAN_POINT ( 'NONE',  ( 112.1046056460918700, 97.23222604636859500, 0.0000000000000000000 ) ) ;
#175 = DIRECTION ( 'NONE',  ( -0.0000000000000000000, 0.0000000000000000000, 1.000000000000000000 ) ) ;
#176 = APPROVAL ( #37, 'Î´Ö¸¶¨' ) ;
#177 = PRODUCT ( '110104', '110104', '', ( #153 ) ) ;
#178 = DIRECTION ( 'NONE',  ( 1.000000000000000000, 0.0000000000000000000, 0.0000000000000000000 ) ) ;
#179 = APPROVAL_ROLE ( '' ) ;
#180 = CLOSED_SHELL ( 'NONE', ( #123, #292, #312, #103, #210, #17 ) ) ;
#181 = APPROVAL ( #338, 'Î´Ö¸¶¨' ) ;
#182 = APPROVAL_STATUS ( 'not_yet_approved' ) ;
#183 = CC_DESIGN_APPROVAL ( #99, ( #234 ) ) ;
#184 = APPROVAL_ROLE ( '' ) ;
#185 = CALENDAR_DATE ( 2019, 8, 7 ) ;
#186 = PERSON_AND_ORGANIZATION ( #64, #236 ) ;
#187 = AXIS2_PLACEMENT_3D ( 'NONE', #33, #138, #87 ) ;
#188 = APPROVAL_STATUS ( 'not_yet_approved' ) ;
#189 = CC_DESIGN_SECURITY_CLASSIFICATION ( #234, ( #158 ) ) ;
#190 = CIRCLE ( 'NONE', #113, 25.39999999999929900 ) ;
#191 = FACE_OUTER_BOUND ( 'NONE', #121, .T. ) ;
#192 = AXIS2_PLACEMENT_3D ( 'NONE', #92, #117, #5 ) ;
#193 = DIRECTION ( 'NONE',  ( 0.0000000000000000000, 0.0000000000000000000, 1.000000000000000000 ) ) ;
#194 = LOCAL_TIME ( 15, 40, 24.00000000000000000, #315 ) ;
#195 = ORIENTED_EDGE ( 'NONE', *, *, #295, .T. ) ;
#196 = CARTESIAN_POINT ( 'NONE',  ( 174.1663868636107700, 97.23222604636954700, 25.39999999999997700 ) ) ;
#197 = FACE_OUTER_BOUND ( 'NONE', #97, .T. ) ;
#198 = ORIENTED_EDGE ( 'NONE', *, *, #80, .F. ) ;
#199 = CARTESIAN_POINT ( 'NONE',  ( 112.1046056460918700, 97.23222604636859500, 0.0000000000000000000 ) ) ;
#200 = PERSON_AND_ORGANIZATION ( #64, #236 ) ;
#201 = VECTOR ( 'NONE', #309, 1000.000000000000000 ) ;
#202 = DIRECTION ( 'NONE',  ( 1.000000000000000000, 0.0000000000000000000, 0.0000000000000000000 ) ) ;
#203 = PERSON_AND_ORGANIZATION_ROLE ( 'creator' ) ;
#204 = AXIS2_PLACEMENT_3D ( 'NONE', #139, #8, #114 ) ;
#205 = CARTESIAN_POINT ( 'NONE',  ( 166.6665005354934700, 97.23222604636886500, 0.0000000000000000000 ) ) ;
#206 = CARTESIAN_POINT ( 'NONE',  ( 233.6838934530326500, 97.23222604636886500, 0.0000000000000000000 ) ) ;
#207 = COORDINATED_UNIVERSAL_TIME_OFFSET ( 8, 0, .AHEAD. ) ;
#208 = PRODUCT ( '110104', '110104', '', ( #93 ) ) ;
#209 = CIRCLE ( 'NONE', #157, 67.05836776936331500 ) ;
#210 = ADVANCED_FACE ( 'NONE', ( #119 ), #128, .T. ) ;
#211 =( GEOMETRIC_REPRESENTATION_CONTEXT ( 3 ) GLOBAL_UNCERTAINTY_ASSIGNED_CONTEXT ( ( #32 ) ) GLOBAL_UNIT_ASSIGNED_CONTEXT ( ( #233, #100, #263 ) ) REPRESENTATION_CONTEXT ( 'NONE', 'WORKASPACE' ) );
#212 = APPROVAL_ROLE ( '' ) ;
#213 = APPROVAL_DATE_TIME ( #151, #66 ) ;
#214 = APPLICATION_CONTEXT ( 'configuration controlled 3d designs of mechanical parts and assemblies' ) ;
#215 = DATE_TIME_ROLE ( 'classification_date' ) ;
#216 = CC_DESIGN_PERSON_AND_ORGANIZATION_ASSIGNMENT ( #3, #21, ( #148 ) ) ;
#217 = DATE_AND_TIME ( #185, #172 ) ;
#218 = ADVANCED_BREP_SHAPE_REPRESENTATION ( '110104', ( #256, #327 ), #211 ) ;
#219 = ORIENTED_EDGE ( 'NONE', *, *, #51, .T. ) ;
#220 = VERTEX_POINT ( 'NONE', #98 ) ;
#221 = PRODUCT_RELATED_PRODUCT_CATEGORY ( 'detail', '', ( #208 ) ) ;
#222 = APPROVAL_PERSON_ORGANIZATION ( #293, #99, #271 ) ;
#223 = ORIENTED_EDGE ( 'NONE', *, *, #91, .F. ) ;
#224 = AXIS2_PLACEMENT_3D ( 'NONE', #288, #175, #40 ) ;
#225 = DATE_AND_TIME ( #307, #57 ) ;
#226 = ORIENTED_EDGE ( 'NONE', *, *, #108, .T. ) ;
#227 = VERTEX_POINT ( 'NONE', #196 ) ;
#228 = CARTESIAN_POINT ( 'NONE',  ( 165.7441079421506600, 97.23222604636954700, 25.39999999999964000 ) ) ;
#229 = AXIS2_PLACEMENT_3D ( 'NONE', #71, #334, #16 ) ;
#230 = DIRECTION ( 'NONE',  ( -0.0000000000000000000, 0.0000000000000000000, 1.000000000000000000 ) ) ;
#231 = PERSON_AND_ORGANIZATION ( #64, #236 ) ;
#232 = ORIENTED_EDGE ( 'NONE', *, *, #73, .T. ) ;
#233 =( LENGTH_UNIT ( ) NAMED_UNIT ( * ) SI_UNIT ( .MILLI., .METRE. ) );
#234 = SECURITY_CLASSIFICATION ( '', '', #105 ) ;
#235 = PERSON_AND_ORGANIZATION ( #64, #236 ) ;
#236 = ORGANIZATION ( 'Î´Ö¸¶¨', 'Î´Ö¸¶¨', '' ) ;
#237 = DIRECTION ( 'NONE',  ( -1.000000000000000000, -0.0000000000000000000, -0.0000000000000000000 ) ) ;
#238 = ORIENTED_EDGE ( 'NONE', *, *, #94, .F. ) ;
#239 = CARTESIAN_POINT ( 'NONE',  ( 174.1663868636107700, 122.6322260463690700, 0.0000000000000000000 ) ) ;
#240 = EDGE_CURVE ( 'NONE', #109, #331, #96, .T. ) ;
#241 = LOCAL_TIME ( 15, 40, 24.00000000000000000, #273 ) ;
#242 = CC_DESIGN_DATE_AND_TIME_ASSIGNMENT ( #9, #215, ( #234 ) ) ;
#243 = PERSON_AND_ORGANIZATION ( #64, #236 ) ;
#244 = EDGE_CURVE ( 'NONE', #290, #168, #104, .T. ) ;
#245 = PRODUCT_DEFINITION_SHAPE ( 'NONE', 'NONE',  #279 ) ;
#246 = SECURITY_CLASSIFICATION_LEVEL ( 'unclassified' ) ;
#247 = CYLINDRICAL_SURFACE ( 'NONE', #162, 25.39999999999964000 ) ;
#248 = ORIENTED_EDGE ( 'NONE', *, *, #73, .F. ) ;
#249 = CIRCLE ( 'NONE', #102, 67.01739291753916900 ) ;
#250 = PRODUCT_DEFINITION_FORMATION_WITH_SPECIFIED_SOURCE ( 'ÈÎºÎ', '', #208, .NOT_KNOWN. ) ;
#251 = PRODUCT_DEFINITION_SHAPE ( 'NONE', 'NONE',  #148 ) ;
#252 = CARTESIAN_POINT ( 'NONE',  ( 171.6663882350393400, 97.23222604636954700, 0.0000000000000000000 ) ) ;
#253 = COORDINATED_UNIVERSAL_TIME_OFFSET ( 8, 0, .AHEAD. ) ;
#254 = DIRECTION ( 'NONE',  ( -1.000000000000000000, -0.0000000000000000000, -0.0000000000000000000 ) ) ;
#255 = EDGE_CURVE ( 'NONE', #115, #341, #190, .T. ) ;
#256 = MANIFOLD_SOLID_BREP ( 'Ðý×ª1', #180 ) ;
#257 = DIRECTION ( 'NONE',  ( -0.0000000000000000000, 0.0000000000000000000, -1.000000000000000000 ) ) ;
#258 = APPLICATION_PROTOCOL_DEFINITION ( 'international standard', 'config_control_design', 1994, #306 ) ;
#259 = PERSON_AND_ORGANIZATION ( #64, #236 ) ;
#260 = SPHERICAL_SURFACE ( 'NONE', #229, 67.01739291753916900 ) ;
#261 = CARTESIAN_POINT ( 'NONE',  ( 0.0000000000000000000, 0.0000000000000000000, 0.0000000000000000000 ) ) ;
#262 = CC_DESIGN_PERSON_AND_ORGANIZATION_ASSIGNMENT ( #186, #344, ( #177 ) ) ;
#263 =( NAMED_UNIT ( * ) SI_UNIT ( $, .STERADIAN. ) SOLID_ANGLE_UNIT ( ) );
#264 = CARTESIAN_POINT ( 'NONE',  ( 171.6663882350393400, 97.23222604636954700, 0.0000000000000000000 ) ) ;
#265 = FACE_OUTER_BOUND ( 'NONE', #318, .T. ) ;
#266 = PERSON_AND_ORGANIZATION_ROLE ( 'design_supplier' ) ;
#267 = EDGE_CURVE ( 'NONE', #85, #324, #336, .T. ) ;
#268 = PERSON_AND_ORGANIZATION_ROLE ( 'classification_officer' ) ;
#269 = CALENDAR_DATE ( 2019, 8, 7 ) ;
#270 = SPHERICAL_SURFACE ( 'NONE', #44, 67.01739291753916900 ) ;
#271 = APPROVAL_ROLE ( '' ) ;
#272 = APPLICATION_PROTOCOL_DEFINITION ( 'international standard', 'config_control_design', 1994, #214 ) ;
#273 = COORDINATED_UNIVERSAL_TIME_OFFSET ( 8, 0, .AHEAD. ) ;
#274 = DIRECTION ( 'NONE',  ( 0.0000000000000000000, 0.0000000000000000000, 1.000000000000000000 ) ) ;
#275 = COORDINATED_UNIVERSAL_TIME_OFFSET ( 8, 0, .AHEAD. ) ;
#276 = SHAPE_DEFINITION_REPRESENTATION ( #251, #218 ) ;
#277 = DIRECTION ( 'NONE',  ( -1.000000000000000000, -0.0000000000000000000, -0.0000000000000000000 ) ) ;
#278 = DIRECTION ( 'NONE',  ( -1.000000000000000000, -0.0000000000000000000, -0.0000000000000000000 ) ) ;
#279 = PRODUCT_DEFINITION ( 'Î´Öª', '', #250, #67 ) ;
#280 = DATE_AND_TIME ( #47, #155 ) ;
#281 = DIRECTION ( 'NONE',  ( 0.0000000000000000000, 1.000000000000000000, 1.224646799147352700E-016 ) ) ;
#282 = FACE_OUTER_BOUND ( 'NONE', #34, .T. ) ;
#283 = CC_DESIGN_APPROVAL ( #26, ( #158 ) ) ;
#284 = DESIGN_CONTEXT ( 'detailed design', #214, 'design' ) ;
#285 = CARTESIAN_POINT ( 'NONE',  ( 171.6663882350393400, 97.23222604636954700, 25.39999999999929900 ) ) ;
#286 = CC_DESIGN_PERSON_AND_ORGANIZATION_ASSIGNMENT ( #259, #203, ( #250 ) ) ;
#287 = COORDINATED_UNIVERSAL_TIME_OFFSET ( 8, 0, .AHEAD. ) ;
#288 = CARTESIAN_POINT ( 'NONE',  ( 112.1046056460918700, 97.23222604636859500, 0.0000000000000000000 ) ) ;
#289 = PERSON_AND_ORGANIZATION ( #64, #236 ) ;
#290 = VERTEX_POINT ( 'NONE', #311 ) ;
#291 = APPLICATION_CONTEXT ( 'configuration controlled 3d designs of mechanical parts and assemblies' ) ;
#292 = ADVANCED_FACE ( 'NONE', ( #197 ), #173, .T. ) ;
#293 = PERSON_AND_ORGANIZATION ( #64, #236 ) ;
#294 = ORIENTED_EDGE ( 'NONE', *, *, #255, .T. ) ;
#295 = EDGE_CURVE ( 'NONE', #227, #331, #301, .T. ) ;
#296 = APPROVAL_DATE_TIME ( #14, #317 ) ;
#297 = VECTOR ( 'NONE', #326, 1000.000000000000000 ) ;
#298 = AXIS2_PLACEMENT_3D ( 'NONE', #206, #63, #41 ) ;
#299 = PERSON_AND_ORGANIZATION ( #64, #236 ) ;
#300 = APPROVAL_PERSON_ORGANIZATION ( #106, #181, #179 ) ;
#301 = CIRCLE ( 'NONE', #323, 25.39999999999997700 ) ;
#302 = ORIENTED_EDGE ( 'NONE', *, *, #244, .T. ) ;
#303 = CARTESIAN_POINT ( 'NONE',  ( 171.6663882350393400, 71.83222604636954100, -3.110602869834191700E-015 ) ) ;
#304 = DIRECTION ( 'NONE',  ( 0.0000000000000000000, 0.0000000000000000000, 1.000000000000000000 ) ) ;
#305 = CC_DESIGN_PERSON_AND_ORGANIZATION_ASSIGNMENT ( #299, #339, ( #158 ) ) ;
#306 = APPLICATION_CONTEXT ( 'configuration controlled 3d designs of mechanical parts and assemblies' ) ;
#307 = CALENDAR_DATE ( 2019, 8, 7 ) ;
#308 = ORIENTED_EDGE ( 'NONE', *, *, #240, .T. ) ;
#309 = DIRECTION ( 'NONE',  ( -1.000000000000000000, -0.0000000000000000000, -0.0000000000000000000 ) ) ;
#310 = ORIENTED_EDGE ( 'NONE', *, *, #56, .F. ) ;
#311 = CARTESIAN_POINT ( 'NONE',  ( 174.1663868636107700, 97.23222604636954700, -25.39999999999997700 ) ) ;
#312 = ADVANCED_FACE ( 'NONE', ( #322 ), #260, .T. ) ;
#313 = ORIENTED_EDGE ( 'NONE', *, *, #267, .F. ) ;
#314 = APPLICATION_PROTOCOL_DEFINITION ( 'international standard', 'config_control_design', 1994, #101 ) ;
#315 = COORDINATED_UNIVERSAL_TIME_OFFSET ( 8, 0, .AHEAD. ) ;
#316 = LINE ( 'NONE', #228, #297 ) ;
#317 = APPROVAL ( #122, 'Î´Ö¸¶¨' ) ;
#318 = EDGE_LOOP ( 'NONE', ( #45, #302, #248, #126, #238, #195 ) ) ;
#319 = ORIENTED_EDGE ( 'NONE', *, *, #110, .F. ) ;
#320 = CARTESIAN_POINT ( 'NONE',  ( 171.6663882350393400, 97.23222604636954700, 0.0000000000000000000 ) ) ;
#321 = PERSON_AND_ORGANIZATION ( #64, #236 ) ;
#322 = FACE_OUTER_BOUND ( 'NONE', #82, .T. ) ;
#323 = AXIS2_PLACEMENT_3D ( 'NONE', #65, #13, #337 ) ;
#324 = VERTEX_POINT ( 'NONE', #205 ) ;
#325 = ORIENTED_EDGE ( 'NONE', *, *, #110, .T. ) ;
#326 = DIRECTION ( 'NONE',  ( -1.000000000000000000, -0.0000000000000000000, -0.0000000000000000000 ) ) ;
#327 = AXIS2_PLACEMENT_3D ( 'NONE', #261, #42, #202 ) ;
#328 = DIRECTION ( 'NONE',  ( -1.000000000000000000, -0.0000000000000000000, -0.0000000000000000000 ) ) ;
#329 = PERSON_AND_ORGANIZATION_ROLE ( 'design_owner' ) ;
#330 = LOCAL_TIME ( 15, 40, 24.00000000000000000, #287 ) ;
#331 = VERTEX_POINT ( 'NONE', #239 ) ;
#332 = DATE_TIME_ROLE ( 'creation_date' ) ;
#333 = CC_DESIGN_PERSON_AND_ORGANIZATION_ASSIGNMENT ( #38, #342, ( #136 ) ) ;
#334 = DIRECTION ( 'NONE',  ( -0.0000000000000000000, 0.0000000000000000000, -1.000000000000000000 ) ) ;
#335 = APPROVAL_PERSON_ORGANIZATION ( #1, #26, #212 ) ;
#336 = CIRCLE ( 'NONE', #298, 67.01739291753916900 ) ;
#337 = DIRECTION ( 'NONE',  ( 0.0000000000000000000, 0.0000000000000000000, 1.000000000000000000 ) ) ;
#338 = APPROVAL_STATUS ( 'not_yet_approved' ) ;
#339 = PERSON_AND_ORGANIZATION_ROLE ( 'creator' ) ;
#340 = APPROVAL_DATE_TIME ( #225, #181 ) ;
#341 = VERTEX_POINT ( 'NONE', #70 ) ;
#342 = PERSON_AND_ORGANIZATION_ROLE ( 'classification_officer' ) ;
#343 = CC_DESIGN_APPROVAL ( #317, ( #148 ) ) ;
#344 = PERSON_AND_ORGANIZATION_ROLE ( 'design_owner' ) ;
#345 = CC_DESIGN_PERSON_AND_ORGANIZATION_ASSIGNMENT ( #289, #329, ( #208 ) ) ;
ENDSEC;
END-ISO-10303-21;
