ISO-10303-21;
HEADER;
FILE_DESCRIPTION (( 'STEP AP203' ),
    '1' );
FILE_NAME ('110152.STEP',
    '2019-07-09T01:30:37',
    ( '' ),
    ( '' ),
    'SwSTEP 2.0',
    'SolidWorks 2016',
    '' );
FILE_SCHEMA (( 'CONFIG_CONTROL_DESIGN' ));
ENDSEC;

DATA;
#1 = CIRCLE ( 'NONE', #169, 6.349999999999997900 ) ;
#2 = CARTESIAN_POINT ( 'NONE',  ( 4.153605399514039400, 24.30805651159241900, 0.0000000000000000000 ) ) ;
#3 = APPROVAL_STATUS ( 'not_yet_approved' ) ;
#4 = CIRCLE ( 'NONE', #117, 6.349999999999997900 ) ;
#5 = LOCAL_TIME ( 9, 30, 37.00000000000000000, #258 ) ;
#6 = PRODUCT_DEFINITION_FORMATION_WITH_SPECIFIED_SOURCE ( 'ÈÎºÎ', '', #14, .NOT_KNOWN. ) ;
#7 = VERTEX_POINT ( 'NONE', #286 ) ;
#8 = ORIENTED_EDGE ( 'NONE', *, *, #231, .F. ) ;
#9 = CC_DESIGN_APPROVAL ( #223, ( #110 ) ) ;
#10 = SPHERICAL_SURFACE ( 'NONE', #202, 40.57548848781723900 ) ;
#11 = PERSON_AND_ORGANIZATION ( #210, #300 ) ;
#12 = EDGE_LOOP ( 'NONE', ( #50, #343, #8, #188, #37, #104 ) ) ;
#13 = DIRECTION ( 'NONE',  ( 0.0000000000000000000, -1.000000000000000000, -1.224646799147353000E-016 ) ) ;
#14 = PRODUCT ( '110152', '110152', '', ( #160 ) ) ;
#15 = CARTESIAN_POINT ( 'NONE',  ( 4.153605399514039400, 24.30805651159241900, 0.0000000000000000000 ) ) ;
#16 = VERTEX_POINT ( 'NONE', #72 ) ;
#17 = VERTEX_POINT ( 'NONE', #260 ) ;
#18 = CARTESIAN_POINT ( 'NONE',  ( 44.22913117304555200, 24.30805651159239000, 0.0000000000000000000 ) ) ;
#19 = VERTEX_POINT ( 'NONE', #92 ) ;
#20 = EDGE_CURVE ( 'NONE', #7, #159, #251, .T. ) ;
#21 = SECURITY_CLASSIFICATION ( '', '', #60 ) ;
#22 = DIRECTION ( 'NONE',  ( 1.000000000000000000, 0.0000000000000000000, 0.0000000000000000000 ) ) ;
#23 = DIRECTION ( 'NONE',  ( 0.0000000000000000000, -1.000000000000000000, 0.0000000000000000000 ) ) ;
#24 = DIRECTION ( 'NONE',  ( 1.000000000000000000, 0.0000000000000000000, 0.0000000000000000000 ) ) ;
#25 = APPROVAL_PERSON_ORGANIZATION ( #115, #133, #108 ) ;
#26 = ORIENTED_EDGE ( 'NONE', *, *, #253, .T. ) ;
#27 = DATE_AND_TIME ( #34, #38 ) ;
#28 = CIRCLE ( 'NONE', #255, 40.57548848781723900 ) ;
#29 = MECHANICAL_CONTEXT ( 'NONE', #303, 'mechanical' ) ;
#30 = AXIS2_PLACEMENT_3D ( 'NONE', #52, #317, #339 ) ;
#31 = PERSON_AND_ORGANIZATION ( #210, #300 ) ;
#32 = EDGE_CURVE ( 'NONE', #19, #17, #1, .T. ) ;
#33 = EDGE_LOOP ( 'NONE', ( #134, #268, #290, #181 ) ) ;
#34 = CALENDAR_DATE ( 2019, 9, 7 ) ;
#35 = CALENDAR_DATE ( 2019, 9, 7 ) ;
#36 = DIRECTION ( 'NONE',  ( -0.0000000000000000000, 0.0000000000000000000, -1.000000000000000000 ) ) ;
#37 = ORIENTED_EDGE ( 'NONE', *, *, #274, .F. ) ;
#38 = LOCAL_TIME ( 9, 30, 37.00000000000000000, #200 ) ;
#39 = CIRCLE ( 'NONE', #69, 40.57548848781794200 ) ;
#40 = EDGE_CURVE ( 'NONE', #327, #150, #308, .T. ) ;
#41 = CC_DESIGN_APPROVAL ( #333, ( #250 ) ) ;
#42 = CALENDAR_DATE ( 2019, 9, 7 ) ;
#43 = CARTESIAN_POINT ( 'NONE',  ( 39.65270067541857900, 24.30805651159239000, -6.349999999999997900 ) ) ;
#44 = DIRECTION ( 'NONE',  ( 0.0000000000000000000, 1.000000000000000000, 0.0000000000000000000 ) ) ;
#45 = ORIENTED_EDGE ( 'NONE', *, *, #151, .T. ) ;
#46 = CARTESIAN_POINT ( 'NONE',  ( 44.22913117304555200, 24.30805651159239000, 0.0000000000000000000 ) ) ;
#47 = LOCAL_TIME ( 9, 30, 37.00000000000000000, #152 ) ;
#48 = CC_DESIGN_DATE_AND_TIME_ASSIGNMENT ( #168, #220, ( #110 ) ) ;
#49 = DIRECTION ( 'NONE',  ( -1.000000000000000000, -0.0000000000000000000, -0.0000000000000000000 ) ) ;
#50 = ORIENTED_EDGE ( 'NONE', *, *, #221, .T. ) ;
#51 = EDGE_CURVE ( 'NONE', #16, #150, #140, .T. ) ;
#52 = CARTESIAN_POINT ( 'NONE',  ( 42.22906260161698100, 24.30805651159239000, 0.0000000000000000000 ) ) ;
#53 = DIRECTION ( 'NONE',  ( 0.0000000000000000000, 1.224646799147353200E-016, -1.000000000000000000 ) ) ;
#54 = PERSON_AND_ORGANIZATION ( #210, #300 ) ;
#55 = DATE_TIME_ROLE ( 'classification_date' ) ;
#56 = APPLICATION_PROTOCOL_DEFINITION ( 'international standard', 'config_control_design', 1994, #193 ) ;
#57 = DIRECTION ( 'NONE',  ( 0.0000000000000000000, 0.0000000000000000000, 1.000000000000000000 ) ) ;
#58 = CC_DESIGN_PERSON_AND_ORGANIZATION_ASSIGNMENT ( #91, #162, ( #110 ) ) ;
#59 = VERTEX_POINT ( 'NONE', #125 ) ;
#60 = SECURITY_CLASSIFICATION_LEVEL ( 'unclassified' ) ;
#61 = PRODUCT_DEFINITION_SHAPE ( 'NONE', 'NONE',  #141 ) ;
#62 = PERSON_AND_ORGANIZATION_ROLE ( 'design_supplier' ) ;
#63 = FACE_OUTER_BOUND ( 'NONE', #310, .T. ) ;
#64 = DATE_AND_TIME ( #314, #298 ) ;
#65 = CC_DESIGN_SECURITY_CLASSIFICATION ( #250, ( #195 ) ) ;
#66 = CLOSED_SHELL ( 'NONE', ( #326, #279, #191, #83, #331, #248 ) ) ;
#67 = DATE_AND_TIME ( #102, #107 ) ;
#68 = PERSON_AND_ORGANIZATION ( #210, #300 ) ;
#69 = AXIS2_PLACEMENT_3D ( 'NONE', #297, #53, #177 ) ;
#70 = CALENDAR_DATE ( 2019, 9, 7 ) ;
#71 = ORIENTED_EDGE ( 'NONE', *, *, #205, .T. ) ;
#72 = CARTESIAN_POINT ( 'NONE',  ( 44.72909388733127400, 24.30805651159241500, 0.0000000000000000000 ) ) ;
#73 = AXIS2_PLACEMENT_3D ( 'NONE', #313, #315, #13 ) ;
#74 = DIRECTION ( 'NONE',  ( -1.000000000000000000, 0.0000000000000000000, 0.0000000000000000000 ) ) ;
#75 = SPHERICAL_SURFACE ( 'NONE', #139, 40.57548848781794200 ) ;
#76 = DIRECTION ( 'NONE',  ( 0.0000000000000000000, 0.0000000000000000000, 1.000000000000000000 ) ) ;
#77 = LOCAL_TIME ( 9, 30, 37.00000000000000000, #197 ) ;
#78 = APPROVAL_DATE_TIME ( #67, #133 ) ;
#79 = CARTESIAN_POINT ( 'NONE',  ( 39.65270067541857900, 24.30805651159239000, 0.0000000000000000000 ) ) ;
#80 = PRODUCT_RELATED_PRODUCT_CATEGORY ( 'detail', '', ( #294 ) ) ;
#81 = CARTESIAN_POINT ( 'NONE',  ( 44.22913117304555200, 24.30805651159239000, 6.349999999999997900 ) ) ;
#82 = APPROVAL_STATUS ( 'not_yet_approved' ) ;
#83 = ADVANCED_FACE ( 'NONE', ( #183 ), #75, .T. ) ;
#84 = DIRECTION ( 'NONE',  ( -1.000000000000000000, -0.0000000000000000000, -0.0000000000000000000 ) ) ;
#85 = APPROVAL_ROLE ( '' ) ;
#86 = AXIS2_PLACEMENT_3D ( 'NONE', #239, #49, #182 ) ;
#87 = FACE_OUTER_BOUND ( 'NONE', #12, .T. ) ;
#88 = APPROVAL_DATE_TIME ( #184, #206 ) ;
#89 = EDGE_LOOP ( 'NONE', ( #344, #26, #257, #171 ) ) ;
#90 = CC_DESIGN_PERSON_AND_ORGANIZATION_ASSIGNMENT ( #271, #135, ( #14 ) ) ;
#91 = PERSON_AND_ORGANIZATION ( #210, #300 ) ;
#92 = CARTESIAN_POINT ( 'NONE',  ( 42.22906260161698100, 24.30805651159239000, 6.349999999999997900 ) ) ;
#93 = VERTEX_POINT ( 'NONE', #291 ) ;
#94 = CC_DESIGN_APPROVAL ( #118, ( #21 ) ) ;
#95 = DATE_AND_TIME ( #277, #167 ) ;
#96 = DIRECTION ( 'NONE',  ( -1.000000000000000000, -0.0000000000000000000, -0.0000000000000000000 ) ) ;
#97 = DIRECTION ( 'NONE',  ( 0.0000000000000000000, 0.0000000000000000000, 1.000000000000000000 ) ) ;
#98 = DIRECTION ( 'NONE',  ( 0.0000000000000000000, -1.000000000000000000, 0.0000000000000000000 ) ) ;
#99 = MANIFOLD_SOLID_BREP ( 'Ðý×ª1', #66 ) ;
#100 = AXIS2_PLACEMENT_3D ( 'NONE', #306, #84, #305 ) ;
#101 = CC_DESIGN_DATE_AND_TIME_ASSIGNMENT ( #321, #137, ( #141 ) ) ;
#102 = CALENDAR_DATE ( 2019, 9, 7 ) ;
#103 = DIRECTION ( 'NONE',  ( 0.0000000000000000000, 0.0000000000000000000, 1.000000000000000000 ) ) ;
#104 = ORIENTED_EDGE ( 'NONE', *, *, #40, .T. ) ;
#105 = APPROVAL_ROLE ( '' ) ;
#106 = COORDINATED_UNIVERSAL_TIME_OFFSET ( 8, 0, .AHEAD. ) ;
#107 = LOCAL_TIME ( 9, 30, 37.00000000000000000, #175 ) ;
#108 = APPROVAL_ROLE ( '' ) ;
#109 = PERSON_AND_ORGANIZATION_ROLE ( 'classification_officer' ) ;
#110 = PRODUCT_DEFINITION ( 'Î´Öª', '', #6, #276 ) ;
#111 = APPLICATION_PROTOCOL_DEFINITION ( 'international standard', 'config_control_design', 1994, #136 ) ;
#112 = FACE_OUTER_BOUND ( 'NONE', #240, .T. ) ;
#113 = CC_DESIGN_PERSON_AND_ORGANIZATION_ASSIGNMENT ( #68, #241, ( #294 ) ) ;
#114 = LOCAL_TIME ( 9, 30, 37.00000000000000000, #106 ) ;
#115 = PERSON_AND_ORGANIZATION ( #210, #300 ) ;
#116 = EDGE_LOOP ( 'NONE', ( #155, #233, #323, #123 ) ) ;
#117 = AXIS2_PLACEMENT_3D ( 'NONE', #148, #341, #76 ) ;
#118 = APPROVAL ( #222, 'Î´Ö¸¶¨' ) ;
#119 = SPHERICAL_SURFACE ( 'NONE', #229, 40.57548848781723900 ) ;
#120 = LOCAL_TIME ( 9, 30, 37.00000000000000000, #204 ) ;
#121 = CARTESIAN_POINT ( 'NONE',  ( 82.30458837514920800, 24.30805651159236500, 0.0000000000000000000 ) ) ;
#122 = APPROVAL_PERSON_ORGANIZATION ( #198, #223, #105 ) ;
#123 = ORIENTED_EDGE ( 'NONE', *, *, #199, .T. ) ;
#124 = DIRECTION ( 'NONE',  ( 0.0000000000000000000, 0.0000000000000000000, 1.000000000000000000 ) ) ;
#125 = CARTESIAN_POINT ( 'NONE',  ( 41.72909988733127300, 24.30805651159236500, 0.0000000000000000000 ) ) ;
#126 = CIRCLE ( 'NONE', #214, 6.349999999999997900 ) ;
#127 = PERSON_AND_ORGANIZATION ( #210, #300 ) ;
#128 = DIRECTION ( 'NONE',  ( 0.0000000000000000000, 0.0000000000000000000, 1.000000000000000000 ) ) ;
#129 = CARTESIAN_POINT ( 'NONE',  ( 82.30458837514920800, 24.30805651159236500, 0.0000000000000000000 ) ) ;
#130 = CIRCLE ( 'NONE', #86, 6.349999999999997900 ) ;
#131 = DATE_AND_TIME ( #35, #47 ) ;
#132 = APPLICATION_PROTOCOL_DEFINITION ( 'international standard', 'config_control_design', 1994, #272 ) ;
#133 = APPROVAL ( #156, 'Î´Ö¸¶¨' ) ;
#134 = ORIENTED_EDGE ( 'NONE', *, *, #151, .F. ) ;
#135 = PERSON_AND_ORGANIZATION_ROLE ( 'design_owner' ) ;
#136 = APPLICATION_CONTEXT ( 'configuration controlled 3d designs of mechanical parts and assemblies' ) ;
#137 = DATE_TIME_ROLE ( 'creation_date' ) ;
#138 = APPROVAL_DATE_TIME ( #27, #223 ) ;
#139 = AXIS2_PLACEMENT_3D ( 'NONE', #121, #36, #44 ) ;
#140 = CIRCLE ( 'NONE', #73, 40.57548848781723900 ) ;
#141 = PRODUCT_DEFINITION ( 'Î´Öª', '', #195, #211 ) ;
#142 = PERSON_AND_ORGANIZATION ( #210, #300 ) ;
#143 = AXIS2_PLACEMENT_3D ( 'NONE', #129, #209, #179 ) ;
#144 = DIRECTION ( 'NONE',  ( 0.0000000000000000000, 0.0000000000000000000, 1.000000000000000000 ) ) ;
#145 = DATE_AND_TIME ( #309, #120 ) ;
#146 = CC_DESIGN_PERSON_AND_ORGANIZATION_ASSIGNMENT ( #127, #158, ( #21 ) ) ;
#147 = PRODUCT_DEFINITION_SHAPE ( 'NONE', 'NONE',  #110 ) ;
#148 = CARTESIAN_POINT ( 'NONE',  ( 44.22913117304555200, 24.30805651159239000, 0.0000000000000000000 ) ) ;
#149 = DIRECTION ( 'NONE',  ( 0.0000000000000000000, 0.0000000000000000000, -1.000000000000000000 ) ) ;
#150 = VERTEX_POINT ( 'NONE', #232 ) ;
#151 = EDGE_CURVE ( 'NONE', #16, #93, #28, .T. ) ;
#152 = COORDINATED_UNIVERSAL_TIME_OFFSET ( 8, 0, .AHEAD. ) ;
#153 = CC_DESIGN_PERSON_AND_ORGANIZATION_ASSIGNMENT ( #226, #219, ( #6 ) ) ;
#154 = CARTESIAN_POINT ( 'NONE',  ( 4.153605399514039400, 24.30805651159241900, 0.0000000000000000000 ) ) ;
#155 = ORIENTED_EDGE ( 'NONE', *, *, #311, .F. ) ;
#156 = APPROVAL_STATUS ( 'not_yet_approved' ) ;
#157 = APPROVAL_ROLE ( '' ) ;
#158 = PERSON_AND_ORGANIZATION_ROLE ( 'classification_officer' ) ;
#159 = VERTEX_POINT ( 'NONE', #293 ) ;
#160 = MECHANICAL_CONTEXT ( 'NONE', #136, 'mechanical' ) ;
#161 = AXIS2_PLACEMENT_3D ( 'NONE', #173, #207, #124 ) ;
#162 = PERSON_AND_ORGANIZATION_ROLE ( 'creator' ) ;
#163 = ORIENTED_EDGE ( 'NONE', *, *, #253, .F. ) ;
#164 = APPROVAL_PERSON_ORGANIZATION ( #264, #283, #157 ) ;
#165 = ORIENTED_EDGE ( 'NONE', *, *, #221, .F. ) ;
#166 = CC_DESIGN_APPROVAL ( #133, ( #6 ) ) ;
#167 = LOCAL_TIME ( 9, 30, 37.00000000000000000, #238 ) ;
#168 = DATE_AND_TIME ( #187, #335 ) ;
#169 = AXIS2_PLACEMENT_3D ( 'NONE', #289, #312, #144 ) ;
#170 = UNCERTAINTY_MEASURE_WITH_UNIT (LENGTH_MEASURE( 1.000000000000000100E-005 ), #249, 'distance_accuracy_value', 'NONE');
#171 = ORIENTED_EDGE ( 'NONE', *, *, #199, .F. ) ;
#172 = CC_DESIGN_DATE_AND_TIME_ASSIGNMENT ( #145, #55, ( #21 ) ) ;
#173 = CARTESIAN_POINT ( 'NONE',  ( 44.22913117304555200, 24.30805651159239000, 0.0000000000000000000 ) ) ;
#174 = APPROVAL_DATE_TIME ( #64, #283 ) ;
#175 = COORDINATED_UNIVERSAL_TIME_OFFSET ( 8, 0, .AHEAD. ) ;
#176 = ORIENTED_EDGE ( 'NONE', *, *, #20, .F. ) ;
#177 = DIRECTION ( 'NONE',  ( 0.0000000000000000000, 1.000000000000000000, 1.224646799147353500E-016 ) ) ;
#178 = AXIS2_PLACEMENT_3D ( 'NONE', #79, #213, #237 ) ;
#179 = DIRECTION ( 'NONE',  ( 1.000000000000000000, 0.0000000000000000000, 0.0000000000000000000 ) ) ;
#180 = DIRECTION ( 'NONE',  ( 0.0000000000000000000, 1.000000000000000000, 0.0000000000000000000 ) ) ;
#181 = ORIENTED_EDGE ( 'NONE', *, *, #292, .F. ) ;
#182 = DIRECTION ( 'NONE',  ( 0.0000000000000000000, 0.0000000000000000000, 1.000000000000000000 ) ) ;
#183 = FACE_OUTER_BOUND ( 'NONE', #116, .T. ) ;
#184 = DATE_AND_TIME ( #287, #5 ) ;
#185 = CC_DESIGN_PERSON_AND_ORGANIZATION_ASSIGNMENT ( #54, #246, ( #141 ) ) ;
#186 = APPROVAL_STATUS ( 'not_yet_approved' ) ;
#187 = CALENDAR_DATE ( 2019, 9, 7 ) ;
#188 = ORIENTED_EDGE ( 'NONE', *, *, #32, .F. ) ;
#189 = CARTESIAN_POINT ( 'NONE',  ( 0.0000000000000000000, 0.0000000000000000000, 0.0000000000000000000 ) ) ;
#190 = CIRCLE ( 'NONE', #143, 40.57548848781794200 ) ;
#191 = ADVANCED_FACE ( 'NONE', ( #284 ), #247, .T. ) ;
#192 = SHAPE_DEFINITION_REPRESENTATION ( #61, #266 ) ;
#193 = APPLICATION_CONTEXT ( 'configuration controlled 3d designs of mechanical parts and assemblies' ) ;
#194 = AXIS2_PLACEMENT_3D ( 'NONE', #234, #212, #103 ) ;
#195 = PRODUCT_DEFINITION_FORMATION_WITH_SPECIFIED_SOURCE ( 'ÈÎºÎ', '', #294, .NOT_KNOWN. ) ;
#196 = CYLINDRICAL_SURFACE ( 'NONE', #194, 6.349999999999997900 ) ;
#197 = COORDINATED_UNIVERSAL_TIME_OFFSET ( 8, 0, .AHEAD. ) ;
#198 = PERSON_AND_ORGANIZATION ( #210, #300 ) ;
#199 = EDGE_CURVE ( 'NONE', #17, #59, #190, .T. ) ;
#200 = COORDINATED_UNIVERSAL_TIME_OFFSET ( 8, 0, .AHEAD. ) ;
#201 = FACE_OUTER_BOUND ( 'NONE', #33, .T. ) ;
#202 = AXIS2_PLACEMENT_3D ( 'NONE', #2, #320, #23 ) ;
#203 = APPROVAL_PERSON_ORGANIZATION ( #243, #333, #244 ) ;
#204 = COORDINATED_UNIVERSAL_TIME_OFFSET ( 8, 0, .AHEAD. ) ;
#205 = EDGE_CURVE ( 'NONE', #7, #93, #126, .T. ) ;
#206 = APPROVAL ( #82, 'Î´Ö¸¶¨' ) ;
#207 = DIRECTION ( 'NONE',  ( -1.000000000000000000, -0.0000000000000000000, -0.0000000000000000000 ) ) ;
#208 = CIRCLE ( 'NONE', #30, 6.349999999999997900 ) ;
#209 = DIRECTION ( 'NONE',  ( -0.0000000000000000000, 0.0000000000000000000, 1.000000000000000000 ) ) ;
#210 = PERSON ( 'Î´Ö¸¶¨', 'Î´Ö¸¶¨', 'Î´Ö¸¶¨', ('Î´Ö¸¶¨'), ('Î´Ö¸¶¨'), ('Î´Ö¸¶¨') ) ;
#211 = DESIGN_CONTEXT ( 'detailed design', #193, 'design' ) ;
#212 = DIRECTION ( 'NONE',  ( -1.000000000000000000, -0.0000000000000000000, -0.0000000000000000000 ) ) ;
#213 = DIRECTION ( 'NONE',  ( -1.000000000000000000, -0.0000000000000000000, -0.0000000000000000000 ) ) ;
#214 = AXIS2_PLACEMENT_3D ( 'NONE', #18, #265, #97 ) ;
#215 = VECTOR ( 'NONE', #96, 1000.000000000000000 ) ;
#216 = CC_DESIGN_APPROVAL ( #206, ( #195 ) ) ;
#217 = PERSON_AND_ORGANIZATION ( #210, #300 ) ;
#218 = ORIENTED_EDGE ( 'NONE', *, *, #292, .T. ) ;
#219 = PERSON_AND_ORGANIZATION_ROLE ( 'design_supplier' ) ;
#220 = DATE_TIME_ROLE ( 'creation_date' ) ;
#221 = EDGE_CURVE ( 'NONE', #150, #7, #4, .T. ) ;
#222 = APPROVAL_STATUS ( 'not_yet_approved' ) ;
#223 = APPROVAL ( #3, 'Î´Ö¸¶¨' ) ;
#224 = CARTESIAN_POINT ( 'NONE',  ( 0.0000000000000000000, 0.0000000000000000000, 0.0000000000000000000 ) ) ;
#225 = COORDINATED_UNIVERSAL_TIME_OFFSET ( 8, 0, .AHEAD. ) ;
#226 = PERSON_AND_ORGANIZATION ( #210, #300 ) ;
#227 = CC_DESIGN_SECURITY_CLASSIFICATION ( #21, ( #6 ) ) ;
#228 = CIRCLE ( 'NONE', #295, 6.349999999999997900 ) ;
#229 = AXIS2_PLACEMENT_3D ( 'NONE', #154, #128, #98 ) ;
#230 = CC_DESIGN_PERSON_AND_ORGANIZATION_ASSIGNMENT ( #217, #62, ( #195 ) ) ;
#231 = EDGE_CURVE ( 'NONE', #17, #159, #208, .T. ) ;
#232 = CARTESIAN_POINT ( 'NONE',  ( 44.22913117304555200, 30.65805651159241700, 7.776507174585690200E-016 ) ) ;
#233 = ORIENTED_EDGE ( 'NONE', *, *, #336, .T. ) ;
#234 = CARTESIAN_POINT ( 'NONE',  ( 39.65270067541857900, 24.30805651159239000, 0.0000000000000000000 ) ) ;
#235 =( GEOMETRIC_REPRESENTATION_CONTEXT ( 3 ) GLOBAL_UNCERTAINTY_ASSIGNED_CONTEXT ( ( #170 ) ) GLOBAL_UNIT_ASSIGNED_CONTEXT ( ( #249, #328, #273 ) ) REPRESENTATION_CONTEXT ( 'NONE', 'WORKASPACE' ) );
#236 = DIRECTION ( 'NONE',  ( -1.000000000000000000, -0.0000000000000000000, -0.0000000000000000000 ) ) ;
#237 = DIRECTION ( 'NONE',  ( 0.0000000000000000000, 0.0000000000000000000, 1.000000000000000000 ) ) ;
#238 = COORDINATED_UNIVERSAL_TIME_OFFSET ( 8, 0, .AHEAD. ) ;
#239 = CARTESIAN_POINT ( 'NONE',  ( 42.22906260161698100, 24.30805651159239000, 0.0000000000000000000 ) ) ;
#240 = EDGE_LOOP ( 'NONE', ( #176, #71, #218, #256, #301, #163 ) ) ;
#241 = PERSON_AND_ORGANIZATION_ROLE ( 'design_owner' ) ;
#242 = CC_DESIGN_PERSON_AND_ORGANIZATION_ASSIGNMENT ( #282, #109, ( #250 ) ) ;
#243 = PERSON_AND_ORGANIZATION ( #210, #300 ) ;
#244 = APPROVAL_ROLE ( '' ) ;
#245 = APPROVAL_ROLE ( '' ) ;
#246 = PERSON_AND_ORGANIZATION_ROLE ( 'creator' ) ;
#247 = SPHERICAL_SURFACE ( 'NONE', #329, 40.57548848781794200 ) ;
#248 = ADVANCED_FACE ( 'NONE', ( #112 ), #196, .T. ) ;
#249 =( LENGTH_UNIT ( ) NAMED_UNIT ( * ) SI_UNIT ( .MILLI., .METRE. ) );
#250 = SECURITY_CLASSIFICATION ( '', '', #278 ) ;
#251 = LINE ( 'NONE', #43, #215 ) ;
#252 = DATE_AND_TIME ( #42, #114 ) ;
#253 = EDGE_CURVE ( 'NONE', #159, #261, #130, .T. ) ;
#254 = ORIENTED_EDGE ( 'NONE', *, *, #51, .F. ) ;
#255 = AXIS2_PLACEMENT_3D ( 'NONE', #15, #149, #74 ) ;
#256 = ORIENTED_EDGE ( 'NONE', *, *, #274, .T. ) ;
#257 = ORIENTED_EDGE ( 'NONE', *, *, #311, .T. ) ;
#258 = COORDINATED_UNIVERSAL_TIME_OFFSET ( 8, 0, .AHEAD. ) ;
#259 = CC_DESIGN_PERSON_AND_ORGANIZATION_ASSIGNMENT ( #11, #345, ( #195 ) ) ;
#260 = CARTESIAN_POINT ( 'NONE',  ( 42.22906260161698800, 30.65805651159239900, 0.0000000000000000000 ) ) ;
#261 = VERTEX_POINT ( 'NONE', #263 ) ;
#262 = CIRCLE ( 'NONE', #100, 6.349999999999997900 ) ;
#263 = CARTESIAN_POINT ( 'NONE',  ( 42.22906260161698800, 17.95805651159235700, -7.776507174585702000E-016 ) ) ;
#264 = PERSON_AND_ORGANIZATION ( #210, #300 ) ;
#265 = DIRECTION ( 'NONE',  ( -1.000000000000000000, -0.0000000000000000000, -0.0000000000000000000 ) ) ;
#266 = ADVANCED_BREP_SHAPE_REPRESENTATION ( '110152', ( #99, #338 ), #235 ) ;
#267 = DIRECTION ( 'NONE',  ( -0.0000000000000000000, 0.0000000000000000000, -1.000000000000000000 ) ) ;
#268 = ORIENTED_EDGE ( 'NONE', *, *, #51, .T. ) ;
#269 = CC_DESIGN_DATE_AND_TIME_ASSIGNMENT ( #252, #275, ( #250 ) ) ;
#270 = APPROVAL_DATE_TIME ( #131, #118 ) ;
#271 = PERSON_AND_ORGANIZATION ( #210, #300 ) ;
#272 = APPLICATION_CONTEXT ( 'configuration controlled 3d designs of mechanical parts and assemblies' ) ;
#273 =( NAMED_UNIT ( * ) SI_UNIT ( $, .STERADIAN. ) SOLID_ANGLE_UNIT ( ) );
#274 = EDGE_CURVE ( 'NONE', #327, #19, #285, .T. ) ;
#275 = DATE_TIME_ROLE ( 'classification_date' ) ;
#276 = DESIGN_CONTEXT ( 'detailed design', #272, 'design' ) ;
#277 = CALENDAR_DATE ( 2019, 9, 7 ) ;
#278 = SECURITY_CLASSIFICATION_LEVEL ( 'unclassified' ) ;
#279 = ADVANCED_FACE ( 'NONE', ( #201 ), #119, .T. ) ;
#280 = AXIS2_PLACEMENT_3D ( 'NONE', #189, #325, #24 ) ;
#281 = VECTOR ( 'NONE', #302, 1000.000000000000000 ) ;
#282 = PERSON_AND_ORGANIZATION ( #210, #300 ) ;
#283 = APPROVAL ( #322, 'Î´Ö¸¶¨' ) ;
#284 = FACE_OUTER_BOUND ( 'NONE', #89, .T. ) ;
#285 = LINE ( 'NONE', #340, #281 ) ;
#286 = CARTESIAN_POINT ( 'NONE',  ( 44.22913117304555200, 24.30805651159239000, -6.349999999999997900 ) ) ;
#287 = CALENDAR_DATE ( 2019, 9, 7 ) ;
#288 = CC_DESIGN_PERSON_AND_ORGANIZATION_ASSIGNMENT ( #31, #324, ( #6 ) ) ;
#289 = CARTESIAN_POINT ( 'NONE',  ( 42.22906260161698100, 24.30805651159239000, 0.0000000000000000000 ) ) ;
#290 = ORIENTED_EDGE ( 'NONE', *, *, #40, .F. ) ;
#291 = CARTESIAN_POINT ( 'NONE',  ( 44.22913117304555200, 17.95805651159239200, 0.0000000000000000000 ) ) ;
#292 = EDGE_CURVE ( 'NONE', #93, #327, #228, .T. ) ;
#293 = CARTESIAN_POINT ( 'NONE',  ( 42.22906260161698100, 24.30805651159239000, -6.349999999999997900 ) ) ;
#294 = PRODUCT ( '110152', '110152', '', ( #29 ) ) ;
#295 = AXIS2_PLACEMENT_3D ( 'NONE', #46, #236, #296 ) ;
#296 = DIRECTION ( 'NONE',  ( 0.0000000000000000000, 0.0000000000000000000, 1.000000000000000000 ) ) ;
#297 = CARTESIAN_POINT ( 'NONE',  ( 82.30458837514920800, 24.30805651159236500, 0.0000000000000000000 ) ) ;
#298 = LOCAL_TIME ( 9, 30, 37.00000000000000000, #316 ) ;
#299 = CARTESIAN_POINT ( 'NONE',  ( 82.30458837514920800, 24.30805651159236500, 0.0000000000000000000 ) ) ;
#300 = ORGANIZATION ( 'Î´Ö¸¶¨', 'Î´Ö¸¶¨', '' ) ;
#301 = ORIENTED_EDGE ( 'NONE', *, *, #336, .F. ) ;
#302 = DIRECTION ( 'NONE',  ( -1.000000000000000000, -0.0000000000000000000, -0.0000000000000000000 ) ) ;
#303 = APPLICATION_CONTEXT ( 'configuration controlled 3d designs of mechanical parts and assemblies' ) ;
#304 = CC_DESIGN_APPROVAL ( #283, ( #141 ) ) ;
#305 = DIRECTION ( 'NONE',  ( 0.0000000000000000000, 0.0000000000000000000, 1.000000000000000000 ) ) ;
#306 = CARTESIAN_POINT ( 'NONE',  ( 42.22906260161698100, 24.30805651159239000, 0.0000000000000000000 ) ) ;
#307 = APPLICATION_PROTOCOL_DEFINITION ( 'international standard', 'config_control_design', 1994, #303 ) ;
#308 = CIRCLE ( 'NONE', #161, 6.349999999999997900 ) ;
#309 = CALENDAR_DATE ( 2019, 9, 7 ) ;
#310 = EDGE_LOOP ( 'NONE', ( #254, #45, #330, #165 ) ) ;
#311 = EDGE_CURVE ( 'NONE', #261, #59, #39, .T. ) ;
#312 = DIRECTION ( 'NONE',  ( -1.000000000000000000, -0.0000000000000000000, -0.0000000000000000000 ) ) ;
#313 = CARTESIAN_POINT ( 'NONE',  ( 4.153605399514039400, 24.30805651159241900, 0.0000000000000000000 ) ) ;
#314 = CALENDAR_DATE ( 2019, 9, 7 ) ;
#315 = DIRECTION ( 'NONE',  ( 0.0000000000000000000, -1.224646799147353200E-016, 1.000000000000000000 ) ) ;
#316 = COORDINATED_UNIVERSAL_TIME_OFFSET ( 8, 0, .AHEAD. ) ;
#317 = DIRECTION ( 'NONE',  ( -1.000000000000000000, -0.0000000000000000000, -0.0000000000000000000 ) ) ;
#318 = PRODUCT_RELATED_PRODUCT_CATEGORY ( 'detail', '', ( #14 ) ) ;
#319 = CYLINDRICAL_SURFACE ( 'NONE', #178, 6.349999999999997900 ) ;
#320 = DIRECTION ( 'NONE',  ( 0.0000000000000000000, 0.0000000000000000000, 1.000000000000000000 ) ) ;
#321 = DATE_AND_TIME ( #70, #77 ) ;
#322 = APPROVAL_STATUS ( 'not_yet_approved' ) ;
#323 = ORIENTED_EDGE ( 'NONE', *, *, #32, .T. ) ;
#324 = PERSON_AND_ORGANIZATION_ROLE ( 'creator' ) ;
#325 = DIRECTION ( 'NONE',  ( 0.0000000000000000000, 0.0000000000000000000, 1.000000000000000000 ) ) ;
#326 = ADVANCED_FACE ( 'NONE', ( #87 ), #319, .T. ) ;
#327 = VERTEX_POINT ( 'NONE', #81 ) ;
#328 =( NAMED_UNIT ( * ) PLANE_ANGLE_UNIT ( ) SI_UNIT ( $, .RADIAN. ) );
#329 = AXIS2_PLACEMENT_3D ( 'NONE', #299, #267, #180 ) ;
#330 = ORIENTED_EDGE ( 'NONE', *, *, #205, .F. ) ;
#331 = ADVANCED_FACE ( 'NONE', ( #63 ), #10, .T. ) ;
#332 = PERSON_AND_ORGANIZATION ( #210, #300 ) ;
#333 = APPROVAL ( #186, 'Î´Ö¸¶¨' ) ;
#334 = APPROVAL_PERSON_ORGANIZATION ( #142, #118, #245 ) ;
#335 = LOCAL_TIME ( 9, 30, 37.00000000000000000, #225 ) ;
#336 = EDGE_CURVE ( 'NONE', #261, #19, #262, .T. ) ;
#337 = APPROVAL_DATE_TIME ( #95, #333 ) ;
#338 = AXIS2_PLACEMENT_3D ( 'NONE', #224, #57, #22 ) ;
#339 = DIRECTION ( 'NONE',  ( 0.0000000000000000000, 0.0000000000000000000, 1.000000000000000000 ) ) ;
#340 = CARTESIAN_POINT ( 'NONE',  ( 39.65270067541857900, 24.30805651159239000, 6.349999999999997900 ) ) ;
#341 = DIRECTION ( 'NONE',  ( -1.000000000000000000, -0.0000000000000000000, -0.0000000000000000000 ) ) ;
#342 = APPROVAL_PERSON_ORGANIZATION ( #332, #206, #85 ) ;
#343 = ORIENTED_EDGE ( 'NONE', *, *, #20, .T. ) ;
#344 = ORIENTED_EDGE ( 'NONE', *, *, #231, .T. ) ;
#345 = PERSON_AND_ORGANIZATION_ROLE ( 'creator' ) ;
ENDSEC;
END-ISO-10303-21;
