ISO-10303-21;
HEADER;
FILE_DESCRIPTION (( 'STEP AP214' ),
    '1' );
FILE_NAME ('120002.STEP',
    '2019-06-14T02:12:11',
    ( '' ),
    ( '' ),
    'SwSTEP 2.0',
    'SolidWorks 2016',
    '' );
FILE_SCHEMA (( 'AUTOMOTIVE_DESIGN' ));
ENDSEC;

DATA;
#1 = CARTESIAN_POINT ( 'NONE',  ( 10.61246527853420600, 6.522260287298739600, -2.000000000000000900 ) ) ;
#2 = VERTEX_POINT ( 'NONE', #153 ) ;
#3 = CARTESIAN_POINT ( 'NONE',  ( 17.78286323056902100, 6.522260287298739600, 0.0000000000000000000 ) ) ;
#4 = DIRECTION ( 'NONE',  ( -1.000000000000000000, -0.0000000000000000000, -0.0000000000000000000 ) ) ;
#5 = MECHANICAL_DESIGN_GEOMETRIC_PRESENTATION_REPRESENTATION (  '', ( #16 ), #171 ) ;
#6 = DIRECTION ( 'NONE',  ( 1.000000000000000000, 0.0000000000000000000, 0.0000000000000000000 ) ) ;
#7 = ORIENTED_EDGE ( 'NONE', *, *, #143, .T. ) ;
#8 = DIRECTION ( 'NONE',  ( 0.0000000000000000000, 0.0000000000000000000, 1.000000000000000000 ) ) ;
#9 = EDGE_CURVE ( 'NONE', #69, #186, #111, .T. ) ;
#10 = VERTEX_POINT ( 'NONE', #24 ) ;
#11 = CIRCLE ( 'NONE', #167, 5.200000000000020600 ) ;
#12 = AXIS2_PLACEMENT_3D ( 'NONE', #50, #4, #146 ) ;
#13 = UNCERTAINTY_MEASURE_WITH_UNIT (LENGTH_MEASURE( 1.000000000000000100E-005 ), #148, 'distance_accuracy_value', 'NONE');
#14 = EDGE_CURVE ( 'NONE', #10, #30, #71, .T. ) ;
#15 = ADVANCED_FACE ( 'NONE', ( #42 ), #99, .T. ) ;
#16 = STYLED_ITEM ( 'NONE', ( #138 ), #116 ) ;
#17 =( NAMED_UNIT ( * ) SI_UNIT ( $, .STERADIAN. ) SOLID_ANGLE_UNIT ( ) );
#18 = CARTESIAN_POINT ( 'NONE',  ( 12.98286323056900000, 4.522260287298737900, 0.0000000000000000000 ) ) ;
#19 = DIRECTION ( 'NONE',  ( 0.0000000000000000000, -1.224646799147353200E-016, 1.000000000000000000 ) ) ;
#20 = COLOUR_RGB ( '',1.000000000000000000, 1.000000000000000000, 1.000000000000000000 ) ;
#21 = SURFACE_STYLE_USAGE ( .BOTH. , #164 ) ;
#22 = APPLICATION_CONTEXT ( 'automotive_design' ) ;
#23 =( LENGTH_UNIT ( ) NAMED_UNIT ( * ) SI_UNIT ( .MILLI., .METRE. ) );
#24 = CARTESIAN_POINT ( 'NONE',  ( 12.98286323056900000, 6.522260287298739600, 2.000000000000000900 ) ) ;
#25 = DIRECTION ( 'NONE',  ( 0.0000000000000000000, 0.0000000000000000000, 1.000000000000000000 ) ) ;
#26 = SPHERICAL_SURFACE ( 'NONE', #113, 5.200000000000020600 ) ;
#27 = STYLED_ITEM ( 'NONE', ( #45 ), #95 ) ;
#28 = ORIENTED_EDGE ( 'NONE', *, *, #87, .F. ) ;
#29 = EDGE_CURVE ( 'NONE', #2, #30, #133, .T. ) ;
#30 = VERTEX_POINT ( 'NONE', #107 ) ;
#31 = PRODUCT_DEFINITION_FORMATION_WITH_SPECIFIED_SOURCE ( 'ÈÎºÎ', '', #184, .NOT_KNOWN. ) ;
#32 = DIRECTION ( 'NONE',  ( 0.0000000000000000000, -1.000000000000000000, 0.0000000000000000000 ) ) ;
#33 = ORIENTED_EDGE ( 'NONE', *, *, #143, .F. ) ;
#34 = FILL_AREA_STYLE_COLOUR ( '', #20 ) ;
#35 = DIRECTION ( 'NONE',  ( -1.000000000000000000, -0.0000000000000000000, -0.0000000000000000000 ) ) ;
#36 = CARTESIAN_POINT ( 'NONE',  ( 0.0000000000000000000, 0.0000000000000000000, 0.0000000000000000000 ) ) ;
#37 = CIRCLE ( 'NONE', #120, 2.000000000000000900 ) ;
#38 = FILL_AREA_STYLE ('',( #176 ) ) ;
#39 = DIRECTION ( 'NONE',  ( 0.0000000000000000000, 0.0000000000000000000, 1.000000000000000000 ) ) ;
#40 = PRODUCT_DEFINITION_SHAPE ( 'NONE', 'NONE',  #43 ) ;
#41 = VECTOR ( 'NONE', #128, 1000.000000000000000 ) ;
#42 = FACE_OUTER_BOUND ( 'NONE', #145, .T. ) ;
#43 = PRODUCT_DEFINITION ( 'Î´Öª', '', #31, #61 ) ;
#44 = ORIENTED_EDGE ( 'NONE', *, *, #56, .T. ) ;
#45 = PRESENTATION_STYLE_ASSIGNMENT (( #137 ) ) ;
#46 = AXIS2_PLACEMENT_3D ( 'NONE', #49, #147, #73 ) ;
#47 = CLOSED_SHELL ( 'NONE', ( #139, #142, #79, #15, #119 ) ) ;
#48 = CARTESIAN_POINT ( 'NONE',  ( 17.78286323056902100, 6.522260287298739600, 0.0000000000000000000 ) ) ;
#49 = CARTESIAN_POINT ( 'NONE',  ( 11.08286323056900400, 6.522260287298739600, 0.0000000000000000000 ) ) ;
#50 = CARTESIAN_POINT ( 'NONE',  ( 12.98286323056900000, 6.522260287298739600, 0.0000000000000000000 ) ) ;
#51 = CIRCLE ( 'NONE', #100, 2.000000000000000900 ) ;
#52 =( LENGTH_UNIT ( ) NAMED_UNIT ( * ) SI_UNIT ( .MILLI., .METRE. ) );
#53 = AXIS2_PLACEMENT_3D ( 'NONE', #183, #82, #168 ) ;
#54 = VERTEX_POINT ( 'NONE', #179 ) ;
#55 = CARTESIAN_POINT ( 'NONE',  ( 12.58286323056900200, 6.522260287298739600, 0.0000000000000000000 ) ) ;
#56 = EDGE_CURVE ( 'NONE', #54, #2, #90, .T. ) ;
#57 = CIRCLE ( 'NONE', #185, 2.000000000000000900 ) ;
#58 = SHAPE_DEFINITION_REPRESENTATION ( #40, #116 ) ;
#59 = CARTESIAN_POINT ( 'NONE',  ( 12.98286323056900000, 6.522260287298739600, 0.0000000000000000000 ) ) ;
#60 = FACE_OUTER_BOUND ( 'NONE', #101, .T. ) ;
#61 = PRODUCT_DEFINITION_CONTEXT ( 'detailed design', #76, 'design' ) ;
#62 = APPLICATION_PROTOCOL_DEFINITION ( 'draft international standard', 'automotive_design', 1998, #76 ) ;
#63 = ORIENTED_EDGE ( 'NONE', *, *, #65, .F. ) ;
#64 = DIRECTION ( 'NONE',  ( 0.0000000000000000000, 0.0000000000000000000, -1.000000000000000000 ) ) ;
#65 = EDGE_CURVE ( 'NONE', #154, #54, #37, .T. ) ;
#66 = ORIENTED_EDGE ( 'NONE', *, *, #9, .T. ) ;
#67 = DIRECTION ( 'NONE',  ( -1.000000000000000000, -0.0000000000000000000, -0.0000000000000000000 ) ) ;
#68 = UNCERTAINTY_MEASURE_WITH_UNIT (LENGTH_MEASURE( 1.000000000000000100E-005 ), #52, 'distance_accuracy_value', 'NONE');
#69 = VERTEX_POINT ( 'NONE', #18 ) ;
#70 = VECTOR ( 'NONE', #149, 1000.000000000000000 ) ;
#71 = LINE ( 'NONE', #109, #41 ) ;
#72 = DIRECTION ( 'NONE',  ( 0.0000000000000000000, 0.0000000000000000000, -1.000000000000000000 ) ) ;
#73 = DIRECTION ( 'NONE',  ( 0.0000000000000000000, 0.0000000000000000000, 1.000000000000000000 ) ) ;
#74 = SURFACE_SIDE_STYLE ('',( #80 ) ) ;
#75 = DIRECTION ( 'NONE',  ( 0.0000000000000000000, 0.0000000000000000000, 1.000000000000000000 ) ) ;
#76 = APPLICATION_CONTEXT ( 'automotive_design' ) ;
#77 = EDGE_LOOP ( 'NONE', ( #28, #110, #155, #66 ) ) ;
#78 = DIRECTION ( 'NONE',  ( -1.000000000000000000, -0.0000000000000000000, -0.0000000000000000000 ) ) ;
#79 = ADVANCED_FACE ( 'NONE', ( #124 ), #26, .F. ) ;
#80 = SURFACE_STYLE_FILL_AREA ( #102 ) ;
#81 = DIRECTION ( 'NONE',  ( -1.000000000000000000, -0.0000000000000000000, -0.0000000000000000000 ) ) ;
#82 = DIRECTION ( 'NONE',  ( 0.0000000000000000000, 0.0000000000000000000, 1.000000000000000000 ) ) ;
#83 = ORIENTED_EDGE ( 'NONE', *, *, #14, .T. ) ;
#84 = EDGE_CURVE ( 'NONE', #54, #69, #117, .T. ) ;
#85 = CIRCLE ( 'NONE', #12, 2.000000000000000900 ) ;
#86 = EDGE_LOOP ( 'NONE', ( #177, #44, #33, #170, #127 ) ) ;
#87 = EDGE_CURVE ( 'NONE', #154, #186, #11, .T. ) ;
#88 = DIRECTION ( 'NONE',  ( 0.0000000000000000000, 0.0000000000000000000, 1.000000000000000000 ) ) ;
#89 = CARTESIAN_POINT ( 'NONE',  ( 11.08286323056900400, 6.522260287298739600, 0.0000000000000000000 ) ) ;
#90 = LINE ( 'NONE', #1, #70 ) ;
#91 =( NAMED_UNIT ( * ) SI_UNIT ( $, .STERADIAN. ) SOLID_ANGLE_UNIT ( ) );
#92 = ORIENTED_EDGE ( 'NONE', *, *, #9, .F. ) ;
#93 = DIRECTION ( 'NONE',  ( -1.000000000000000000, 0.0000000000000000000, 0.0000000000000000000 ) ) ;
#94 = DIRECTION ( 'NONE',  ( -1.000000000000000000, -0.0000000000000000000, -0.0000000000000000000 ) ) ;
#95 = MANIFOLD_SOLID_BREP ( 'Ðý×ª1', #47 ) ;
#96 = FACE_OUTER_BOUND ( 'NONE', #118, .T. ) ;
#97 = DIRECTION ( 'NONE',  ( 0.0000000000000000000, 0.0000000000000000000, 1.000000000000000000 ) ) ;
#98 = AXIS2_PLACEMENT_3D ( 'NONE', #180, #94, #25 ) ;
#99 = CYLINDRICAL_SURFACE ( 'NONE', #98, 2.000000000000000900 ) ;
#100 = AXIS2_PLACEMENT_3D ( 'NONE', #141, #81, #97 ) ;
#101 = EDGE_LOOP ( 'NONE', ( #63, #103, #92, #181 ) ) ;
#102 = FILL_AREA_STYLE ('',( #34 ) ) ;
#103 = ORIENTED_EDGE ( 'NONE', *, *, #87, .T. ) ;
#104 = DIRECTION ( 'NONE',  ( -1.000000000000000000, -0.0000000000000000000, -0.0000000000000000000 ) ) ;
#105 = DIRECTION ( 'NONE',  ( 0.0000000000000000000, -1.000000000000000000, -1.224646799147353200E-016 ) ) ;
#106 = FACE_OUTER_BOUND ( 'NONE', #86, .T. ) ;
#107 = CARTESIAN_POINT ( 'NONE',  ( 11.08286323056900400, 6.522260287298739600, 2.000000000000000900 ) ) ;
#108 = PRESENTATION_LAYER_ASSIGNMENT (  '', '', ( #27 ) ) ;
#109 = CARTESIAN_POINT ( 'NONE',  ( 10.61246527853420600, 6.522260287298739600, 2.000000000000000900 ) ) ;
#110 = ORIENTED_EDGE ( 'NONE', *, *, #157, .F. ) ;
#111 = CIRCLE ( 'NONE', #178, 5.200000000000020600 ) ;
#112 = CARTESIAN_POINT ( 'NONE',  ( 10.61246527853420600, 6.522260287298739600, 0.0000000000000000000 ) ) ;
#113 = AXIS2_PLACEMENT_3D ( 'NONE', #48, #75, #32 ) ;
#114 = ORIENTED_EDGE ( 'NONE', *, *, #29, .T. ) ;
#115 = EDGE_CURVE ( 'NONE', #69, #10, #85, .T. ) ;
#116 = ADVANCED_BREP_SHAPE_REPRESENTATION ( '120002', ( #95, #144 ), #129 ) ;
#117 = CIRCLE ( 'NONE', #162, 2.000000000000000900 ) ;
#118 = EDGE_LOOP ( 'NONE', ( #7, #114 ) ) ;
#119 = ADVANCED_FACE ( 'NONE', ( #96 ), #175, .F. ) ;
#120 = AXIS2_PLACEMENT_3D ( 'NONE', #122, #35, #88 ) ;
#121 =( NAMED_UNIT ( * ) PLANE_ANGLE_UNIT ( ) SI_UNIT ( $, .RADIAN. ) );
#122 = CARTESIAN_POINT ( 'NONE',  ( 12.98286323056900000, 6.522260287298739600, 0.0000000000000000000 ) ) ;
#123 =( NAMED_UNIT ( * ) PLANE_ANGLE_UNIT ( ) SI_UNIT ( $, .RADIAN. ) );
#124 = FACE_OUTER_BOUND ( 'NONE', #77, .T. ) ;
#125 = PRODUCT_CONTEXT ( 'NONE', #22, 'mechanical' ) ;
#126 = PRESENTATION_LAYER_ASSIGNMENT (  '', '', ( #16 ) ) ;
#127 = ORIENTED_EDGE ( 'NONE', *, *, #157, .T. ) ;
#128 = DIRECTION ( 'NONE',  ( -1.000000000000000000, -0.0000000000000000000, -0.0000000000000000000 ) ) ;
#129 =( GEOMETRIC_REPRESENTATION_CONTEXT ( 3 ) GLOBAL_UNCERTAINTY_ASSIGNED_CONTEXT ( ( #68 ) ) GLOBAL_UNIT_ASSIGNED_CONTEXT ( ( #52, #123, #161 ) ) REPRESENTATION_CONTEXT ( 'NONE', 'WORKASPACE' ) );
#130 = SPHERICAL_SURFACE ( 'NONE', #53, 5.200000000000020600 ) ;
#131 = DIRECTION ( 'NONE',  ( 0.0000000000000000000, 0.0000000000000000000, 1.000000000000000000 ) ) ;
#132 = AXIS2_PLACEMENT_3D ( 'NONE', #112, #67, #131 ) ;
#133 = CIRCLE ( 'NONE', #46, 2.000000000000000900 ) ;
#134 = UNCERTAINTY_MEASURE_WITH_UNIT (LENGTH_MEASURE( 1.000000000000000100E-005 ), #23, 'distance_accuracy_value', 'NONE');
#135 = ORIENTED_EDGE ( 'NONE', *, *, #29, .F. ) ;
#136 = DIRECTION ( 'NONE',  ( 0.0000000000000000000, 0.0000000000000000000, 1.000000000000000000 ) ) ;
#137 = SURFACE_STYLE_USAGE ( .BOTH. , #74 ) ;
#138 = PRESENTATION_STYLE_ASSIGNMENT (( #21 ) ) ;
#139 = ADVANCED_FACE ( 'NONE', ( #106 ), #151, .T. ) ;
#140 = MECHANICAL_DESIGN_GEOMETRIC_PRESENTATION_REPRESENTATION (  '', ( #27 ), #172 ) ;
#141 = CARTESIAN_POINT ( 'NONE',  ( 11.08286323056900400, 6.522260287298739600, 0.0000000000000000000 ) ) ;
#142 = ADVANCED_FACE ( 'NONE', ( #60 ), #130, .F. ) ;
#143 = EDGE_CURVE ( 'NONE', #30, #2, #51, .T. ) ;
#144 = AXIS2_PLACEMENT_3D ( 'NONE', #36, #8, #6 ) ;
#145 = EDGE_LOOP ( 'NONE', ( #174, #156, #165, #83, #135 ) ) ;
#146 = DIRECTION ( 'NONE',  ( 0.0000000000000000000, 0.0000000000000000000, 1.000000000000000000 ) ) ;
#147 = DIRECTION ( 'NONE',  ( -1.000000000000000000, -0.0000000000000000000, -0.0000000000000000000 ) ) ;
#148 =( LENGTH_UNIT ( ) NAMED_UNIT ( * ) SI_UNIT ( .MILLI., .METRE. ) );
#149 = DIRECTION ( 'NONE',  ( -1.000000000000000000, -0.0000000000000000000, -0.0000000000000000000 ) ) ;
#150 = APPLICATION_PROTOCOL_DEFINITION ( 'draft international standard', 'automotive_design', 1998, #22 ) ;
#151 = CYLINDRICAL_SURFACE ( 'NONE', #132, 2.000000000000000900 ) ;
#152 =( NAMED_UNIT ( * ) PLANE_ANGLE_UNIT ( ) SI_UNIT ( $, .RADIAN. ) );
#153 = CARTESIAN_POINT ( 'NONE',  ( 11.08286323056900400, 6.522260287298739600, -2.000000000000000900 ) ) ;
#154 = VERTEX_POINT ( 'NONE', #182 ) ;
#155 = ORIENTED_EDGE ( 'NONE', *, *, #115, .F. ) ;
#156 = ORIENTED_EDGE ( 'NONE', *, *, #84, .T. ) ;
#157 = EDGE_CURVE ( 'NONE', #10, #154, #57, .T. ) ;
#158 = AXIS2_PLACEMENT_3D ( 'NONE', #89, #159, #72 ) ;
#159 = DIRECTION ( 'NONE',  ( 1.000000000000000000, 0.0000000000000000000, 0.0000000000000000000 ) ) ;
#160 = PRODUCT_RELATED_PRODUCT_CATEGORY ( 'part', '', ( #184 ) ) ;
#161 =( NAMED_UNIT ( * ) SI_UNIT ( $, .STERADIAN. ) SOLID_ANGLE_UNIT ( ) );
#162 = AXIS2_PLACEMENT_3D ( 'NONE', #173, #104, #39 ) ;
#163 = COLOUR_RGB ( '',1.000000000000000000, 1.000000000000000000, 1.000000000000000000 ) ;
#164 = SURFACE_SIDE_STYLE ('',( #169 ) ) ;
#165 = ORIENTED_EDGE ( 'NONE', *, *, #115, .T. ) ;
#166 = CARTESIAN_POINT ( 'NONE',  ( 17.78286323056902100, 6.522260287298739600, 0.0000000000000000000 ) ) ;
#167 = AXIS2_PLACEMENT_3D ( 'NONE', #3, #19, #105 ) ;
#168 = DIRECTION ( 'NONE',  ( 0.0000000000000000000, -1.000000000000000000, 0.0000000000000000000 ) ) ;
#169 = SURFACE_STYLE_FILL_AREA ( #38 ) ;
#170 = ORIENTED_EDGE ( 'NONE', *, *, #14, .F. ) ;
#171 =( GEOMETRIC_REPRESENTATION_CONTEXT ( 3 ) GLOBAL_UNCERTAINTY_ASSIGNED_CONTEXT ( ( #134 ) ) GLOBAL_UNIT_ASSIGNED_CONTEXT ( ( #23, #152, #91 ) ) REPRESENTATION_CONTEXT ( 'NONE', 'WORKASPACE' ) );
#172 =( GEOMETRIC_REPRESENTATION_CONTEXT ( 3 ) GLOBAL_UNCERTAINTY_ASSIGNED_CONTEXT ( ( #13 ) ) GLOBAL_UNIT_ASSIGNED_CONTEXT ( ( #148, #121, #17 ) ) REPRESENTATION_CONTEXT ( 'NONE', 'WORKASPACE' ) );
#173 = CARTESIAN_POINT ( 'NONE',  ( 12.98286323056900000, 6.522260287298739600, 0.0000000000000000000 ) ) ;
#174 = ORIENTED_EDGE ( 'NONE', *, *, #56, .F. ) ;
#175 = PLANE ( 'NONE',  #158 ) ;
#176 = FILL_AREA_STYLE_COLOUR ( '', #163 ) ;
#177 = ORIENTED_EDGE ( 'NONE', *, *, #65, .T. ) ;
#178 = AXIS2_PLACEMENT_3D ( 'NONE', #166, #64, #93 ) ;
#179 = CARTESIAN_POINT ( 'NONE',  ( 12.98286323056900000, 6.522260287298739600, -2.000000000000000900 ) ) ;
#180 = CARTESIAN_POINT ( 'NONE',  ( 10.61246527853420600, 6.522260287298739600, 0.0000000000000000000 ) ) ;
#181 = ORIENTED_EDGE ( 'NONE', *, *, #84, .F. ) ;
#182 = CARTESIAN_POINT ( 'NONE',  ( 12.98286323056900000, 8.522260287298740500, 2.449293598294708900E-016 ) ) ;
#183 = CARTESIAN_POINT ( 'NONE',  ( 17.78286323056902100, 6.522260287298739600, 0.0000000000000000000 ) ) ;
#184 = PRODUCT ( '120002', '120002', '', ( #125 ) ) ;
#185 = AXIS2_PLACEMENT_3D ( 'NONE', #59, #78, #136 ) ;
#186 = VERTEX_POINT ( 'NONE', #55 ) ;
ENDSEC;
END-ISO-10303-21;
