ISO-10303-21;
HEADER;
FILE_DESCRIPTION (( 'STEP AP214' ),
    '1' );
FILE_NAME ('120027.STEP',
    '2019-06-17T01:31:25',
    ( '' ),
    ( '' ),
    'SwSTEP 2.0',
    'SolidWorks 2016',
    '' );
FILE_SCHEMA (( 'AUTOMOTIVE_DESIGN' ));
ENDSEC;

DATA;
#1 = ADVANCED_FACE ( 'NONE', ( #138 ), #67, .T. ) ;
#2 = DIRECTION ( 'NONE',  ( -1.000000000000000000, -0.0000000000000000000, -0.0000000000000000000 ) ) ;
#3 = ORIENTED_EDGE ( 'NONE', *, *, #158, .T. ) ;
#4 = APPLICATION_PROTOCOL_DEFINITION ( 'draft international standard', 'automotive_design', 1998, #134 ) ;
#5 = CARTESIAN_POINT ( 'NONE',  ( 45.81915269315437200, 26.08904114919495900, 0.0000000000000000000 ) ) ;
#6 = CARTESIAN_POINT ( 'NONE',  ( 128.4391346881045900, 26.08904114919495900, -0.05454497324304183300 ) ) ;
#7 = PRODUCT_CONTEXT ( 'NONE', #134, 'mechanical' ) ;
#8 = AXIS2_PLACEMENT_3D ( 'NONE', #49, #105, #142 ) ;
#9 = TOROIDAL_SURFACE ( 'NONE', #85, 0.05454497324304183300, 82.62000000000003300 ) ;
#10 = SHAPE_DEFINITION_REPRESENTATION ( #21, #112 ) ;
#11 =( LENGTH_UNIT ( ) NAMED_UNIT ( * ) SI_UNIT ( .MILLI., .METRE. ) );
#12 = ORIENTED_EDGE ( 'NONE', *, *, #166, .T. ) ;
#13 = DIRECTION ( 'NONE',  ( -1.000000000000000000, -0.0000000000000000000, -0.0000000000000000000 ) ) ;
#14 = EDGE_CURVE ( 'NONE', #127, #47, #58, .T. ) ;
#15 = APPLICATION_PROTOCOL_DEFINITION ( 'draft international standard', 'automotive_design', 1998, #81 ) ;
#16 = DIRECTION ( 'NONE',  ( -1.000000000000000000, -0.0000000000000000000, -0.0000000000000000000 ) ) ;
#17 = FACE_OUTER_BOUND ( 'NONE', #82, .T. ) ;
#18 = PRODUCT_DEFINITION_FORMATION_WITH_SPECIFIED_SOURCE ( 'ÈÎºÎ', '', #111, .NOT_KNOWN. ) ;
#19 = VERTEX_POINT ( 'NONE', #153 ) ;
#20 = LINE ( 'NONE', #110, #139 ) ;
#21 = PRODUCT_DEFINITION_SHAPE ( 'NONE', 'NONE',  #65 ) ;
#22 = PRESENTATION_STYLE_ASSIGNMENT (( #143 ) ) ;
#23 = CARTESIAN_POINT ( 'NONE',  ( 46.20207403770326200, 26.08904114919495900, 0.0000000000000000000 ) ) ;
#24 = ORIENTED_EDGE ( 'NONE', *, *, #14, .F. ) ;
#25 = CIRCLE ( 'NONE', #122, 7.999999999999996400 ) ;
#26 = FILL_AREA_STYLE_COLOUR ( '', #152 ) ;
#27 =( LENGTH_UNIT ( ) NAMED_UNIT ( * ) SI_UNIT ( .MILLI., .METRE. ) );
#28 = DIRECTION ( 'NONE',  ( 0.0000000000000000000, 0.0000000000000000000, 1.000000000000000000 ) ) ;
#29 =( GEOMETRIC_REPRESENTATION_CONTEXT ( 3 ) GLOBAL_UNCERTAINTY_ASSIGNED_CONTEXT ( ( #60 ) ) GLOBAL_UNIT_ASSIGNED_CONTEXT ( ( #68, #43, #70 ) ) REPRESENTATION_CONTEXT ( 'NONE', 'WORKASPACE' ) );
#30 = FACE_OUTER_BOUND ( 'NONE', #118, .T. ) ;
#31 = PRESENTATION_LAYER_ASSIGNMENT (  '', '', ( #59 ) ) ;
#32 = EDGE_LOOP ( 'NONE', ( #3, #150, #24, #113 ) ) ;
#33 = ADVANCED_FACE ( 'NONE', ( #30 ), #160, .F. ) ;
#34 = LINE ( 'NONE', #64, #120 ) ;
#35 = DIRECTION ( 'NONE',  ( -1.000000000000000000, -0.0000000000000000000, -0.0000000000000000000 ) ) ;
#36 = DIRECTION ( 'NONE',  ( -1.000000000000000000, -0.0000000000000000000, -0.0000000000000000000 ) ) ;
#37 = SURFACE_SIDE_STYLE ('',( #107 ) ) ;
#38 = AXIS2_PLACEMENT_3D ( 'NONE', #154, #90, #78 ) ;
#39 = CARTESIAN_POINT ( 'NONE',  ( 44.31915269315436500, 26.08904114919495900, 0.0000000000000000000 ) ) ;
#40 =( NAMED_UNIT ( * ) SI_UNIT ( $, .STERADIAN. ) SOLID_ANGLE_UNIT ( ) );
#41 = STYLED_ITEM ( 'NONE', ( #80 ), #112 ) ;
#42 = DIRECTION ( 'NONE',  ( 1.000000000000000000, 0.0000000000000000000, 0.0000000000000000000 ) ) ;
#43 =( NAMED_UNIT ( * ) PLANE_ANGLE_UNIT ( ) SI_UNIT ( $, .RADIAN. ) );
#44 = CIRCLE ( 'NONE', #83, 8.000000000000003600 ) ;
#45 = ORIENTED_EDGE ( 'NONE', *, *, #149, .T. ) ;
#46 = CIRCLE ( 'NONE', #116, 82.62000000000003300 ) ;
#47 = VERTEX_POINT ( 'NONE', #91 ) ;
#48 = PRODUCT_RELATED_PRODUCT_CATEGORY ( 'part', '', ( #111 ) ) ;
#49 = CARTESIAN_POINT ( 'NONE',  ( 44.31915269315436500, 26.08904114919495900, 0.0000000000000000000 ) ) ;
#50 = ORIENTED_EDGE ( 'NONE', *, *, #87, .F. ) ;
#51 = EDGE_CURVE ( 'NONE', #96, #19, #88, .T. ) ;
#52 = FILL_AREA_STYLE ('',( #26 ) ) ;
#53 = DIRECTION ( 'NONE',  ( 0.0000000000000000000, -1.000000000000000000, 0.0000000000000000000 ) ) ;
#54 = MECHANICAL_DESIGN_GEOMETRIC_PRESENTATION_REPRESENTATION (  '', ( #41 ), #29 ) ;
#55 = PLANE ( 'NONE',  #102 ) ;
#56 = CARTESIAN_POINT ( 'NONE',  ( 42.44986111413682300, 26.08904114919495900, 0.0000000000000000000 ) ) ;
#57 = ORIENTED_EDGE ( 'NONE', *, *, #51, .T. ) ;
#58 = CIRCLE ( 'NONE', #8, 8.000000000000003600 ) ;
#59 = STYLED_ITEM ( 'NONE', ( #22 ), #73 ) ;
#60 = UNCERTAINTY_MEASURE_WITH_UNIT (LENGTH_MEASURE( 1.000000000000000100E-005 ), #68, 'distance_accuracy_value', 'NONE');
#61 = ORIENTED_EDGE ( 'NONE', *, *, #51, .F. ) ;
#62 =( GEOMETRIC_REPRESENTATION_CONTEXT ( 3 ) GLOBAL_UNCERTAINTY_ASSIGNED_CONTEXT ( ( #126 ) ) GLOBAL_UNIT_ASSIGNED_CONTEXT ( ( #11, #66, #155 ) ) REPRESENTATION_CONTEXT ( 'NONE', 'WORKASPACE' ) );
#63 = CARTESIAN_POINT ( 'NONE',  ( 42.44986111413682300, 26.08904114919495900, 0.0000000000000000000 ) ) ;
#64 = CARTESIAN_POINT ( 'NONE',  ( 42.44986111413682300, 26.08904114919495900, -8.000000000000000000 ) ) ;
#65 = PRODUCT_DEFINITION ( 'Î´Öª', '', #18, #164 ) ;
#66 =( NAMED_UNIT ( * ) PLANE_ANGLE_UNIT ( ) SI_UNIT ( $, .RADIAN. ) );
#67 = CYLINDRICAL_SURFACE ( 'NONE', #144, 8.000000000000000000 ) ;
#68 =( LENGTH_UNIT ( ) NAMED_UNIT ( * ) SI_UNIT ( .MILLI., .METRE. ) );
#69 = DIRECTION ( 'NONE',  ( 0.0000000000000000000, 0.0000000000000000000, 1.000000000000000000 ) ) ;
#70 =( NAMED_UNIT ( * ) SI_UNIT ( $, .STERADIAN. ) SOLID_ANGLE_UNIT ( ) );
#71 = ORIENTED_EDGE ( 'NONE', *, *, #149, .F. ) ;
#72 = AXIS2_PLACEMENT_3D ( 'NONE', #124, #95, #42 ) ;
#73 = MANIFOLD_SOLID_BREP ( 'Ðý×ª1', #86 ) ;
#74 = EDGE_LOOP ( 'NONE', ( #50, #57, #101, #103 ) ) ;
#75 = AXIS2_PLACEMENT_3D ( 'NONE', #23, #77, #76 ) ;
#76 = DIRECTION ( 'NONE',  ( 0.0000000000000000000, 0.0000000000000000000, 1.000000000000000000 ) ) ;
#77 = DIRECTION ( 'NONE',  ( -1.000000000000000000, -0.0000000000000000000, -0.0000000000000000000 ) ) ;
#78 = DIRECTION ( 'NONE',  ( 0.0000000000000000000, 0.0000000000000000000, 1.000000000000000000 ) ) ;
#79 = MECHANICAL_DESIGN_GEOMETRIC_PRESENTATION_REPRESENTATION (  '', ( #59 ), #62 ) ;
#80 = PRESENTATION_STYLE_ASSIGNMENT (( #145 ) ) ;
#81 = APPLICATION_CONTEXT ( 'automotive_design' ) ;
#82 = EDGE_LOOP ( 'NONE', ( #61, #45, #156 ) ) ;
#83 = AXIS2_PLACEMENT_3D ( 'NONE', #39, #133, #69 ) ;
#84 = DIRECTION ( 'NONE',  ( 0.0000000000000000000, 0.0000000000000000000, 1.000000000000000000 ) ) ;
#85 = AXIS2_PLACEMENT_3D ( 'NONE', #117, #2, #28 ) ;
#86 = CLOSED_SHELL ( 'NONE', ( #151, #89, #33, #1, #157 ) ) ;
#87 = EDGE_CURVE ( 'NONE', #96, #47, #34, .T. ) ;
#88 = CIRCLE ( 'NONE', #75, 7.999999999999996400 ) ;
#89 = ADVANCED_FACE ( 'NONE', ( #17 ), #9, .F. ) ;
#90 = DIRECTION ( 'NONE',  ( -1.000000000000000000, -0.0000000000000000000, -0.0000000000000000000 ) ) ;
#91 = CARTESIAN_POINT ( 'NONE',  ( 44.31915269315436500, 26.08904114919495900, -8.000000000000003600 ) ) ;
#92 = SURFACE_STYLE_FILL_AREA ( #52 ) ;
#93 = CIRCLE ( 'NONE', #100, 82.62000000000003300 ) ;
#94 = UNCERTAINTY_MEASURE_WITH_UNIT (LENGTH_MEASURE( 1.000000000000000100E-005 ), #27, 'distance_accuracy_value', 'NONE');
#95 = DIRECTION ( 'NONE',  ( 0.0000000000000000000, 0.0000000000000000000, 1.000000000000000000 ) ) ;
#96 = VERTEX_POINT ( 'NONE', #130 ) ;
#97 = CARTESIAN_POINT ( 'NONE',  ( 44.31915269315436500, 26.08904114919495900, 0.0000000000000000000 ) ) ;
#98 = CARTESIAN_POINT ( 'NONE',  ( 128.4391346881045900, 26.08904114919495900, 0.05454497324304183300 ) ) ;
#99 = EDGE_LOOP ( 'NONE', ( #132, #129 ) ) ;
#100 = AXIS2_PLACEMENT_3D ( 'NONE', #6, #136, #121 ) ;
#101 = ORIENTED_EDGE ( 'NONE', *, *, #137, .T. ) ;
#102 = AXIS2_PLACEMENT_3D ( 'NONE', #97, #162, #147 ) ;
#103 = ORIENTED_EDGE ( 'NONE', *, *, #140, .F. ) ;
#104 = AXIS2_PLACEMENT_3D ( 'NONE', #56, #16, #84 ) ;
#105 = DIRECTION ( 'NONE',  ( -1.000000000000000000, -0.0000000000000000000, -0.0000000000000000000 ) ) ;
#106 = FILL_AREA_STYLE ('',( #108 ) ) ;
#107 = SURFACE_STYLE_FILL_AREA ( #106 ) ;
#108 = FILL_AREA_STYLE_COLOUR ( '', #148 ) ;
#109 = DIRECTION ( 'NONE',  ( 0.0000000000000000000, 0.0000000000000000000, -1.000000000000000000 ) ) ;
#110 = CARTESIAN_POINT ( 'NONE',  ( 42.44986111413682300, 26.08904114919495900, 8.000000000000000000 ) ) ;
#111 = PRODUCT ( '120027', '120027', '', ( #7 ) ) ;
#112 = ADVANCED_BREP_SHAPE_REPRESENTATION ( '120027', ( #73, #72 ), #128 ) ;
#113 = ORIENTED_EDGE ( 'NONE', *, *, #137, .F. ) ;
#114 = FACE_OUTER_BOUND ( 'NONE', #32, .T. ) ;
#115 = ORIENTED_EDGE ( 'NONE', *, *, #158, .F. ) ;
#116 = AXIS2_PLACEMENT_3D ( 'NONE', #98, #53, #109 ) ;
#117 = CARTESIAN_POINT ( 'NONE',  ( 128.4391346881045900, 26.08904114919495900, 0.0000000000000000000 ) ) ;
#118 = EDGE_LOOP ( 'NONE', ( #71, #115, #12 ) ) ;
#119 = SURFACE_SIDE_STYLE ('',( #92 ) ) ;
#120 = VECTOR ( 'NONE', #36, 1000.000000000000000 ) ;
#121 = DIRECTION ( 'NONE',  ( 0.0000000000000000000, -1.259784659387659100E-016, 1.000000000000000000 ) ) ;
#122 = AXIS2_PLACEMENT_3D ( 'NONE', #146, #131, #159 ) ;
#123 = VERTEX_POINT ( 'NONE', #5 ) ;
#124 = CARTESIAN_POINT ( 'NONE',  ( 0.0000000000000000000, 0.0000000000000000000, 0.0000000000000000000 ) ) ;
#125 = FACE_OUTER_BOUND ( 'NONE', #99, .T. ) ;
#126 = UNCERTAINTY_MEASURE_WITH_UNIT (LENGTH_MEASURE( 1.000000000000000100E-005 ), #11, 'distance_accuracy_value', 'NONE');
#127 = VERTEX_POINT ( 'NONE', #135 ) ;
#128 =( GEOMETRIC_REPRESENTATION_CONTEXT ( 3 ) GLOBAL_UNCERTAINTY_ASSIGNED_CONTEXT ( ( #94 ) ) GLOBAL_UNIT_ASSIGNED_CONTEXT ( ( #27, #161, #40 ) ) REPRESENTATION_CONTEXT ( 'NONE', 'WORKASPACE' ) );
#129 = ORIENTED_EDGE ( 'NONE', *, *, #140, .T. ) ;
#130 = CARTESIAN_POINT ( 'NONE',  ( 46.20207403770326900, 26.08904114919495900, -8.000000000000055100 ) ) ;
#131 = DIRECTION ( 'NONE',  ( -1.000000000000000000, -0.0000000000000000000, -0.0000000000000000000 ) ) ;
#132 = ORIENTED_EDGE ( 'NONE', *, *, #14, .T. ) ;
#133 = DIRECTION ( 'NONE',  ( -1.000000000000000000, -0.0000000000000000000, -0.0000000000000000000 ) ) ;
#134 = APPLICATION_CONTEXT ( 'automotive_design' ) ;
#135 = CARTESIAN_POINT ( 'NONE',  ( 44.31915269315436500, 26.08904114919495900, 8.000000000000003600 ) ) ;
#136 = DIRECTION ( 'NONE',  ( -0.0000000000000000000, 1.000000000000000000, 1.224646799147353200E-016 ) ) ;
#137 = EDGE_CURVE ( 'NONE', #19, #127, #20, .T. ) ;
#138 = FACE_OUTER_BOUND ( 'NONE', #74, .T. ) ;
#139 = VECTOR ( 'NONE', #13, 1000.000000000000000 ) ;
#140 = EDGE_CURVE ( 'NONE', #47, #127, #44, .T. ) ;
#141 = DIRECTION ( 'NONE',  ( 0.0000000000000000000, 0.0000000000000000000, 1.000000000000000000 ) ) ;
#142 = DIRECTION ( 'NONE',  ( 0.0000000000000000000, 0.0000000000000000000, 1.000000000000000000 ) ) ;
#143 = SURFACE_STYLE_USAGE ( .BOTH. , #119 ) ;
#144 = AXIS2_PLACEMENT_3D ( 'NONE', #63, #35, #141 ) ;
#145 = SURFACE_STYLE_USAGE ( .BOTH. , #37 ) ;
#146 = CARTESIAN_POINT ( 'NONE',  ( 46.20207403770326200, 26.08904114919495900, 0.0000000000000000000 ) ) ;
#147 = DIRECTION ( 'NONE',  ( 0.0000000000000000000, 0.0000000000000000000, -1.000000000000000000 ) ) ;
#148 = COLOUR_RGB ( '',1.000000000000000000, 1.000000000000000000, 1.000000000000000000 ) ;
#149 = EDGE_CURVE ( 'NONE', #96, #123, #93, .T. ) ;
#150 = ORIENTED_EDGE ( 'NONE', *, *, #87, .T. ) ;
#151 = ADVANCED_FACE ( 'NONE', ( #114 ), #163, .T. ) ;
#152 = COLOUR_RGB ( '',1.000000000000000000, 1.000000000000000000, 1.000000000000000000 ) ;
#153 = CARTESIAN_POINT ( 'NONE',  ( 46.20207403770326900, 26.08904114919495900, 8.000000000000055100 ) ) ;
#154 = CARTESIAN_POINT ( 'NONE',  ( 128.4391346881045900, 26.08904114919495900, 0.0000000000000000000 ) ) ;
#155 =( NAMED_UNIT ( * ) SI_UNIT ( $, .STERADIAN. ) SOLID_ANGLE_UNIT ( ) );
#156 = ORIENTED_EDGE ( 'NONE', *, *, #166, .F. ) ;
#157 = ADVANCED_FACE ( 'NONE', ( #125 ), #55, .F. ) ;
#158 = EDGE_CURVE ( 'NONE', #19, #96, #25, .T. ) ;
#159 = DIRECTION ( 'NONE',  ( 0.0000000000000000000, 0.0000000000000000000, 1.000000000000000000 ) ) ;
#160 = TOROIDAL_SURFACE ( 'NONE', #38, 0.05454497324304183300, 82.62000000000003300 ) ;
#161 =( NAMED_UNIT ( * ) PLANE_ANGLE_UNIT ( ) SI_UNIT ( $, .RADIAN. ) );
#162 = DIRECTION ( 'NONE',  ( 1.000000000000000000, 0.0000000000000000000, 0.0000000000000000000 ) ) ;
#163 = CYLINDRICAL_SURFACE ( 'NONE', #104, 8.000000000000000000 ) ;
#164 = PRODUCT_DEFINITION_CONTEXT ( 'detailed design', #81, 'design' ) ;
#165 = PRESENTATION_LAYER_ASSIGNMENT (  '', '', ( #41 ) ) ;
#166 = EDGE_CURVE ( 'NONE', #19, #123, #46, .T. ) ;
ENDSEC;
END-ISO-10303-21;
