ISO-10303-21;
HEADER;
FILE_DESCRIPTION (( 'STEP AP214' ),
    '1' );
FILE_NAME ('120035.STEP',
    '2019-06-17T03:18:27',
    ( '' ),
    ( '' ),
    'SwSTEP 2.0',
    'SolidWorks 2016',
    '' );
FILE_SCHEMA (( 'AUTOMOTIVE_DESIGN' ));
ENDSEC;

DATA;
#1 = DIRECTION ( 'NONE',  ( 0.0000000000000000000, -1.000000000000000000, 0.0000000000000000000 ) ) ;
#2 = CIRCLE ( 'NONE', #163, 12.49999999999999600 ) ;
#3 = CARTESIAN_POINT ( 'NONE',  ( 111.1723302420456600, 32.61076812922678400, -0.02652143235831738700 ) ) ;
#4 = ADVANCED_FACE ( 'NONE', ( #56 ), #97, .T. ) ;
#5 = EDGE_CURVE ( 'NONE', #129, #83, #107, .T. ) ;
#6 = ORIENTED_EDGE ( 'NONE', *, *, #13, .F. ) ;
#7 = ORIENTED_EDGE ( 'NONE', *, *, #13, .T. ) ;
#8 = EDGE_CURVE ( 'NONE', #156, #89, #137, .T. ) ;
#9 = CIRCLE ( 'NONE', #130, 12.49999999999999600 ) ;
#10 = STYLED_ITEM ( 'NONE', ( #25 ), #85 ) ;
#11 = SHAPE_DEFINITION_REPRESENTATION ( #143, #85 ) ;
#12 = EDGE_LOOP ( 'NONE', ( #141, #54, #123 ) ) ;
#13 = EDGE_CURVE ( 'NONE', #129, #156, #9, .T. ) ;
#14 = CARTESIAN_POINT ( 'NONE',  ( 56.10091507999716500, 32.61076812922678400, 0.0000000000000000000 ) ) ;
#15 = DIRECTION ( 'NONE',  ( 0.0000000000000000000, 0.0000000000000000000, -1.000000000000000000 ) ) ;
#16 = DIRECTION ( 'NONE',  ( 0.0000000000000000000, 0.0000000000000000000, 1.000000000000000000 ) ) ;
#17 = DIRECTION ( 'NONE',  ( -1.000000000000000000, -0.0000000000000000000, -0.0000000000000000000 ) ) ;
#18 = DIRECTION ( 'NONE',  ( -1.000000000000000000, -0.0000000000000000000, -0.0000000000000000000 ) ) ;
#19 = PRESENTATION_LAYER_ASSIGNMENT (  '', '', ( #10 ) ) ;
#20 = PRODUCT_CONTEXT ( 'NONE', #104, 'mechanical' ) ;
#21 = MECHANICAL_DESIGN_GEOMETRIC_PRESENTATION_REPRESENTATION (  '', ( #10 ), #93 ) ;
#22 = CARTESIAN_POINT ( 'NONE',  ( 61.06143389781146900, 32.61076812922678400, 0.0000000000000000000 ) ) ;
#23 = FACE_OUTER_BOUND ( 'NONE', #12, .T. ) ;
#24 = EDGE_CURVE ( 'NONE', #156, #83, #101, .T. ) ;
#25 = PRESENTATION_STYLE_ASSIGNMENT (( #134 ) ) ;
#26 = PRODUCT_RELATED_PRODUCT_CATEGORY ( 'part', '', ( #146 ) ) ;
#27 = DIRECTION ( 'NONE',  ( 1.000000000000000000, 0.0000000000000000000, 0.0000000000000000000 ) ) ;
#28 = SURFACE_SIDE_STYLE ('',( #58 ) ) ;
#29 = FILL_AREA_STYLE ('',( #116 ) ) ;
#30 = COLOUR_RGB ( '',1.000000000000000000, 1.000000000000000000, 1.000000000000000000 ) ;
#31 = AXIS2_PLACEMENT_3D ( 'NONE', #128, #1, #87 ) ;
#32 = SURFACE_STYLE_FILL_AREA ( #117 ) ;
#33 = PRESENTATION_STYLE_ASSIGNMENT (( #132 ) ) ;
#34 = AXIS2_PLACEMENT_3D ( 'NONE', #149, #47, #15 ) ;
#35 = CARTESIAN_POINT ( 'NONE',  ( 57.53233705252611700, 32.61076812922678400, 0.0000000000000000000 ) ) ;
#36 = CARTESIAN_POINT ( 'NONE',  ( 57.53233705252611700, 32.61076812922678400, 0.0000000000000000000 ) ) ;
#37 = DIRECTION ( 'NONE',  ( 0.0000000000000000000, 0.0000000000000000000, 1.000000000000000000 ) ) ;
#38 =( LENGTH_UNIT ( ) NAMED_UNIT ( * ) SI_UNIT ( .MILLI., .METRE. ) );
#39 = DIRECTION ( 'NONE',  ( 0.0000000000000000000, 0.0000000000000000000, 1.000000000000000000 ) ) ;
#40 = ORIENTED_EDGE ( 'NONE', *, *, #24, .F. ) ;
#41 = PRESENTATION_LAYER_ASSIGNMENT (  '', '', ( #55 ) ) ;
#42 = VECTOR ( 'NONE', #105, 1000.000000000000000 ) ;
#43 = AXIS2_PLACEMENT_3D ( 'NONE', #14, #78, #95 ) ;
#44 = ORIENTED_EDGE ( 'NONE', *, *, #5, .T. ) ;
#45 = AXIS2_PLACEMENT_3D ( 'NONE', #98, #17, #102 ) ;
#46 = DIRECTION ( 'NONE',  ( -0.0000000000000000000, 1.000000000000000000, 1.224646799147353200E-016 ) ) ;
#47 = DIRECTION ( 'NONE',  ( 1.000000000000000000, 0.0000000000000000000, 0.0000000000000000000 ) ) ;
#48 = PRODUCT_DEFINITION ( 'Î´Öª', '', #100, #57 ) ;
#49 = DIRECTION ( 'NONE',  ( -1.000000000000000000, -0.0000000000000000000, -0.0000000000000000000 ) ) ;
#50 = MECHANICAL_DESIGN_GEOMETRIC_PRESENTATION_REPRESENTATION (  '', ( #55 ), #67 ) ;
#51 = UNCERTAINTY_MEASURE_WITH_UNIT (LENGTH_MEASURE( 1.000000000000000100E-005 ), #161, 'distance_accuracy_value', 'NONE');
#52 =( NAMED_UNIT ( * ) PLANE_ANGLE_UNIT ( ) SI_UNIT ( $, .RADIAN. ) );
#53 =( NAMED_UNIT ( * ) SI_UNIT ( $, .STERADIAN. ) SOLID_ANGLE_UNIT ( ) );
#54 = ORIENTED_EDGE ( 'NONE', *, *, #24, .T. ) ;
#55 = STYLED_ITEM ( 'NONE', ( #33 ), #113 ) ;
#56 = FACE_OUTER_BOUND ( 'NONE', #144, .T. ) ;
#57 = PRODUCT_DEFINITION_CONTEXT ( 'detailed design', #71, 'design' ) ;
#58 = SURFACE_STYLE_FILL_AREA ( #29 ) ;
#59 = ORIENTED_EDGE ( 'NONE', *, *, #108, .F. ) ;
#60 = DIRECTION ( 'NONE',  ( -1.000000000000000000, -0.0000000000000000000, -0.0000000000000000000 ) ) ;
#61 =( GEOMETRIC_REPRESENTATION_CONTEXT ( 3 ) GLOBAL_UNCERTAINTY_ASSIGNED_CONTEXT ( ( #51 ) ) GLOBAL_UNIT_ASSIGNED_CONTEXT ( ( #161, #160, #53 ) ) REPRESENTATION_CONTEXT ( 'NONE', 'WORKASPACE' ) );
#62 = ADVANCED_FACE ( 'NONE', ( #70 ), #127, .F. ) ;
#63 = CARTESIAN_POINT ( 'NONE',  ( 56.10091507999716500, 32.61076812922678400, 0.0000000000000000000 ) ) ;
#64 = FACE_OUTER_BOUND ( 'NONE', #73, .T. ) ;
#65 = ORIENTED_EDGE ( 'NONE', *, *, #108, .T. ) ;
#66 = DIRECTION ( 'NONE',  ( -1.000000000000000000, -0.0000000000000000000, -0.0000000000000000000 ) ) ;
#67 =( GEOMETRIC_REPRESENTATION_CONTEXT ( 3 ) GLOBAL_UNCERTAINTY_ASSIGNED_CONTEXT ( ( #84 ) ) GLOBAL_UNIT_ASSIGNED_CONTEXT ( ( #68, #80, #155 ) ) REPRESENTATION_CONTEXT ( 'NONE', 'WORKASPACE' ) );
#68 =( LENGTH_UNIT ( ) NAMED_UNIT ( * ) SI_UNIT ( .MILLI., .METRE. ) );
#69 = DIRECTION ( 'NONE',  ( 0.0000000000000000000, 0.0000000000000000000, 1.000000000000000000 ) ) ;
#70 = FACE_OUTER_BOUND ( 'NONE', #75, .T. ) ;
#71 = APPLICATION_CONTEXT ( 'automotive_design' ) ;
#72 = APPLICATION_PROTOCOL_DEFINITION ( 'draft international standard', 'automotive_design', 1998, #104 ) ;
#73 = EDGE_LOOP ( 'NONE', ( #7, #81, #106, #145 ) ) ;
#74 = CIRCLE ( 'NONE', #90, 12.49999999999999600 ) ;
#75 = EDGE_LOOP ( 'NONE', ( #94, #65 ) ) ;
#76 = CARTESIAN_POINT ( 'NONE',  ( 56.10091507999716500, 32.61076812922678400, -12.49999999999999600 ) ) ;
#77 = DIRECTION ( 'NONE',  ( 0.0000000000000000000, 0.0000000000000000000, 1.000000000000000000 ) ) ;
#78 = DIRECTION ( 'NONE',  ( -1.000000000000000000, -0.0000000000000000000, -0.0000000000000000000 ) ) ;
#79 = ORIENTED_EDGE ( 'NONE', *, *, #151, .T. ) ;
#80 =( NAMED_UNIT ( * ) PLANE_ANGLE_UNIT ( ) SI_UNIT ( $, .RADIAN. ) );
#81 = ORIENTED_EDGE ( 'NONE', *, *, #8, .T. ) ;
#82 = CARTESIAN_POINT ( 'NONE',  ( 61.06143389781146900, 32.61076812922678400, 0.0000000000000000000 ) ) ;
#83 = VERTEX_POINT ( 'NONE', #110 ) ;
#84 = UNCERTAINTY_MEASURE_WITH_UNIT (LENGTH_MEASURE( 1.000000000000000100E-005 ), #68, 'distance_accuracy_value', 'NONE');
#85 = ADVANCED_BREP_SHAPE_REPRESENTATION ( '120035', ( #113, #148 ), #61 ) ;
#86 = COLOUR_RGB ( '',1.000000000000000000, 1.000000000000000000, 1.000000000000000000 ) ;
#87 = DIRECTION ( 'NONE',  ( 0.0000000000000000000, 0.0000000000000000000, -1.000000000000000000 ) ) ;
#88 = UNCERTAINTY_MEASURE_WITH_UNIT (LENGTH_MEASURE( 1.000000000000000100E-005 ), #38, 'distance_accuracy_value', 'NONE');
#89 = VERTEX_POINT ( 'NONE', #124 ) ;
#90 = AXIS2_PLACEMENT_3D ( 'NONE', #35, #18, #69 ) ;
#91 = DIRECTION ( 'NONE',  ( -1.000000000000000000, -0.0000000000000000000, -0.0000000000000000000 ) ) ;
#92 = APPLICATION_PROTOCOL_DEFINITION ( 'draft international standard', 'automotive_design', 1998, #71 ) ;
#93 =( GEOMETRIC_REPRESENTATION_CONTEXT ( 3 ) GLOBAL_UNCERTAINTY_ASSIGNED_CONTEXT ( ( #88 ) ) GLOBAL_UNIT_ASSIGNED_CONTEXT ( ( #38, #52, #118 ) ) REPRESENTATION_CONTEXT ( 'NONE', 'WORKASPACE' ) );
#94 = ORIENTED_EDGE ( 'NONE', *, *, #120, .T. ) ;
#95 = DIRECTION ( 'NONE',  ( 0.0000000000000000000, 0.0000000000000000000, 1.000000000000000000 ) ) ;
#96 = AXIS2_PLACEMENT_3D ( 'NONE', #131, #49, #37 ) ;
#97 = CYLINDRICAL_SURFACE ( 'NONE', #166, 12.49999999999999600 ) ;
#98 = CARTESIAN_POINT ( 'NONE',  ( 111.1723302420456600, 32.61076812922678400, 0.0000000000000000000 ) ) ;
#99 = ADVANCED_FACE ( 'NONE', ( #64 ), #164, .T. ) ;
#100 = PRODUCT_DEFINITION_FORMATION_WITH_SPECIFIED_SOURCE ( 'ÈÎºÎ', '', #146, .NOT_KNOWN. ) ;
#101 = CIRCLE ( 'NONE', #138, 51.64000000000000100 ) ;
#102 = DIRECTION ( 'NONE',  ( 0.0000000000000000000, 0.0000000000000000000, 1.000000000000000000 ) ) ;
#103 = VECTOR ( 'NONE', #125, 1000.000000000000000 ) ;
#104 = APPLICATION_CONTEXT ( 'automotive_design' ) ;
#105 = DIRECTION ( 'NONE',  ( -1.000000000000000000, -0.0000000000000000000, -0.0000000000000000000 ) ) ;
#106 = ORIENTED_EDGE ( 'NONE', *, *, #120, .F. ) ;
#107 = CIRCLE ( 'NONE', #31, 51.64000000000000100 ) ;
#108 = EDGE_CURVE ( 'NONE', #89, #109, #126, .T. ) ;
#109 = VERTEX_POINT ( 'NONE', #153 ) ;
#110 = CARTESIAN_POINT ( 'NONE',  ( 59.53233705252611000, 32.61076812922678400, 0.0000000000000000000 ) ) ;
#111 = ADVANCED_FACE ( 'NONE', ( #152 ), #139, .F. ) ;
#112 = DIRECTION ( 'NONE',  ( 0.0000000000000000000, -1.343705248626496600E-016, 1.000000000000000000 ) ) ;
#113 = MANIFOLD_SOLID_BREP ( 'Ðý×ª1', #162 ) ;
#114 = CARTESIAN_POINT ( 'NONE',  ( 61.06143389781146200, 32.61076812922678400, -12.49999999999999300 ) ) ;
#115 = ORIENTED_EDGE ( 'NONE', *, *, #136, .T. ) ;
#116 = FILL_AREA_STYLE_COLOUR ( '', #86 ) ;
#117 = FILL_AREA_STYLE ('',( #140 ) ) ;
#118 =( NAMED_UNIT ( * ) SI_UNIT ( $, .STERADIAN. ) SOLID_ANGLE_UNIT ( ) );
#119 = CARTESIAN_POINT ( 'NONE',  ( 56.10091507999716500, 32.61076812922678400, 12.49999999999999600 ) ) ;
#120 = EDGE_CURVE ( 'NONE', #109, #89, #74, .T. ) ;
#121 = ORIENTED_EDGE ( 'NONE', *, *, #8, .F. ) ;
#122 = LINE ( 'NONE', #119, #42 ) ;
#123 = ORIENTED_EDGE ( 'NONE', *, *, #5, .F. ) ;
#124 = CARTESIAN_POINT ( 'NONE',  ( 57.53233705252611700, 32.61076812922678400, -12.49999999999999600 ) ) ;
#125 = DIRECTION ( 'NONE',  ( -1.000000000000000000, -0.0000000000000000000, -0.0000000000000000000 ) ) ;
#126 = CIRCLE ( 'NONE', #157, 12.49999999999999600 ) ;
#127 = PLANE ( 'NONE',  #34 ) ;
#128 = CARTESIAN_POINT ( 'NONE',  ( 111.1723302420456600, 32.61076812922678400, 0.02652143235831738700 ) ) ;
#129 = VERTEX_POINT ( 'NONE', #159 ) ;
#130 = AXIS2_PLACEMENT_3D ( 'NONE', #22, #150, #16 ) ;
#131 = CARTESIAN_POINT ( 'NONE',  ( 111.1723302420456600, 32.61076812922678400, 0.0000000000000000000 ) ) ;
#132 = SURFACE_STYLE_USAGE ( .BOTH. , #158 ) ;
#133 = CARTESIAN_POINT ( 'NONE',  ( 0.0000000000000000000, 0.0000000000000000000, 0.0000000000000000000 ) ) ;
#134 = SURFACE_STYLE_USAGE ( .BOTH. , #28 ) ;
#135 = EDGE_LOOP ( 'NONE', ( #40, #6, #44 ) ) ;
#136 = EDGE_CURVE ( 'NONE', #156, #129, #2, .T. ) ;
#137 = LINE ( 'NONE', #76, #103 ) ;
#138 = AXIS2_PLACEMENT_3D ( 'NONE', #3, #46, #112 ) ;
#139 = TOROIDAL_SURFACE ( 'NONE', #45, 0.02652143235831738700, 51.64000000000000100 ) ;
#140 = FILL_AREA_STYLE_COLOUR ( '', #30 ) ;
#141 = ORIENTED_EDGE ( 'NONE', *, *, #136, .F. ) ;
#142 = DIRECTION ( 'NONE',  ( 0.0000000000000000000, 0.0000000000000000000, 1.000000000000000000 ) ) ;
#143 = PRODUCT_DEFINITION_SHAPE ( 'NONE', 'NONE',  #48 ) ;
#144 = EDGE_LOOP ( 'NONE', ( #121, #115, #79, #59 ) ) ;
#145 = ORIENTED_EDGE ( 'NONE', *, *, #151, .F. ) ;
#146 = PRODUCT ( '120035', '120035', '', ( #20 ) ) ;
#147 = ADVANCED_FACE ( 'NONE', ( #23 ), #165, .F. ) ;
#148 = AXIS2_PLACEMENT_3D ( 'NONE', #133, #39, #27 ) ;
#149 = CARTESIAN_POINT ( 'NONE',  ( 57.53233705252611700, 32.61076812922678400, 0.0000000000000000000 ) ) ;
#150 = DIRECTION ( 'NONE',  ( -1.000000000000000000, -0.0000000000000000000, -0.0000000000000000000 ) ) ;
#151 = EDGE_CURVE ( 'NONE', #129, #109, #122, .T. ) ;
#152 = FACE_OUTER_BOUND ( 'NONE', #135, .T. ) ;
#153 = CARTESIAN_POINT ( 'NONE',  ( 57.53233705252611700, 32.61076812922678400, 12.49999999999999600 ) ) ;
#154 = DIRECTION ( 'NONE',  ( 0.0000000000000000000, 0.0000000000000000000, 1.000000000000000000 ) ) ;
#155 =( NAMED_UNIT ( * ) SI_UNIT ( $, .STERADIAN. ) SOLID_ANGLE_UNIT ( ) );
#156 = VERTEX_POINT ( 'NONE', #114 ) ;
#157 = AXIS2_PLACEMENT_3D ( 'NONE', #36, #66, #154 ) ;
#158 = SURFACE_SIDE_STYLE ('',( #32 ) ) ;
#159 = CARTESIAN_POINT ( 'NONE',  ( 61.06143389781146200, 32.61076812922678400, 12.49999999999999300 ) ) ;
#160 =( NAMED_UNIT ( * ) PLANE_ANGLE_UNIT ( ) SI_UNIT ( $, .RADIAN. ) );
#161 =( LENGTH_UNIT ( ) NAMED_UNIT ( * ) SI_UNIT ( .MILLI., .METRE. ) );
#162 = CLOSED_SHELL ( 'NONE', ( #99, #147, #111, #4, #62 ) ) ;
#163 = AXIS2_PLACEMENT_3D ( 'NONE', #82, #91, #142 ) ;
#164 = CYLINDRICAL_SURFACE ( 'NONE', #43, 12.49999999999999600 ) ;
#165 = TOROIDAL_SURFACE ( 'NONE', #96, 0.02652143235831738700, 51.64000000000000100 ) ;
#166 = AXIS2_PLACEMENT_3D ( 'NONE', #63, #60, #77 ) ;
ENDSEC;
END-ISO-10303-21;
