ISO-10303-21;
HEADER;
FILE_DESCRIPTION (( 'STEP AP214' ),
    '1' );
FILE_NAME ('120047.STEP',
    '2019-06-17T07:01:21',
    ( '' ),
    ( '' ),
    'SwSTEP 2.0',
    'SolidWorks 2016',
    '' );
FILE_SCHEMA (( 'AUTOMOTIVE_DESIGN' ));
ENDSEC;

DATA;
#1 = DIRECTION ( 'NONE',  ( 0.0000000000000000000, -1.000000000000000000, 0.0000000000000000000 ) ) ;
#2 = CIRCLE ( 'NONE', #113, 20.00000000000001800 ) ;
#3 = CARTESIAN_POINT ( 'NONE',  ( 120.4421679696420600, 65.15563045701519200, 0.0000000000000000000 ) ) ;
#4 = EDGE_CURVE ( 'NONE', #128, #141, #137, .T. ) ;
#5 =( LENGTH_UNIT ( ) NAMED_UNIT ( * ) SI_UNIT ( .MILLI., .METRE. ) );
#6 = DIRECTION ( 'NONE',  ( 0.0000000000000000000, 0.0000000000000000000, -1.000000000000000000 ) ) ;
#7 = PRODUCT_CONTEXT ( 'NONE', #19, 'mechanical' ) ;
#8 = VECTOR ( 'NONE', #75, 1000.000000000000000 ) ;
#9 = CIRCLE ( 'NONE', #184, 51.64000000000000800 ) ;
#10 = EDGE_CURVE ( 'NONE', #128, #24, #9, .T. ) ;
#11 = FACE_OUTER_BOUND ( 'NONE', #112, .T. ) ;
#12 = SURFACE_SIDE_STYLE ('',( #175 ) ) ;
#13 = AXIS2_PLACEMENT_3D ( 'NONE', #154, #152, #44 ) ;
#14 = ORIENTED_EDGE ( 'NONE', *, *, #34, .F. ) ;
#15 = DIRECTION ( 'NONE',  ( 0.0000000000000000000, 0.0000000000000000000, 1.000000000000000000 ) ) ;
#16 =( NAMED_UNIT ( * ) SI_UNIT ( $, .STERADIAN. ) SOLID_ANGLE_UNIT ( ) );
#17 = VERTEX_POINT ( 'NONE', #149 ) ;
#18 = CARTESIAN_POINT ( 'NONE',  ( 105.6218371238301200, 65.15563045701519200, 0.0000000000000000000 ) ) ;
#19 = APPLICATION_CONTEXT ( 'automotive_design' ) ;
#20 = CARTESIAN_POINT ( 'NONE',  ( 120.4421679696420600, 65.15563045701519200, 0.0000000000000000000 ) ) ;
#21 = DIRECTION ( 'NONE',  ( -1.000000000000000000, -0.0000000000000000000, -0.0000000000000000000 ) ) ;
#22 = DIRECTION ( 'NONE',  ( 1.000000000000000000, 0.0000000000000000000, 0.0000000000000000000 ) ) ;
#23 = PRESENTATION_LAYER_ASSIGNMENT (  '', '', ( #72 ) ) ;
#24 = VERTEX_POINT ( 'NONE', #160 ) ;
#25 = PRODUCT ( '120047', '120047', '', ( #7 ) ) ;
#26 = CIRCLE ( 'NONE', #68, 20.00000000000000400 ) ;
#27 = DIRECTION ( 'NONE',  ( 0.0000000000000000000, -1.224646799147353200E-016, 1.000000000000000000 ) ) ;
#28 = SURFACE_STYLE_FILL_AREA ( #89 ) ;
#29 = ORIENTED_EDGE ( 'NONE', *, *, #166, .T. ) ;
#30 = MANIFOLD_SOLID_BREP ( 'Ðý×ª1', #116 ) ;
#31 = DIRECTION ( 'NONE',  ( 0.0000000000000000000, 0.0000000000000000000, 1.000000000000000000 ) ) ;
#32 = CARTESIAN_POINT ( 'NONE',  ( 113.9119316741596200, 65.15563045701519200, -20.00000000000000400 ) ) ;
#33 = CARTESIAN_POINT ( 'NONE',  ( 105.6218371238301200, 65.15563045701519200, -20.00000000000001100 ) ) ;
#34 = EDGE_CURVE ( 'NONE', #100, #145, #26, .T. ) ;
#35 = APPLICATION_PROTOCOL_DEFINITION ( 'draft international standard', 'automotive_design', 1998, #19 ) ;
#36 =( NAMED_UNIT ( * ) SI_UNIT ( $, .STERADIAN. ) SOLID_ANGLE_UNIT ( ) );
#37 = CARTESIAN_POINT ( 'NONE',  ( 120.4421679696420600, 65.15563045701519200, 0.0000000000000000000 ) ) ;
#38 = CIRCLE ( 'NONE', #147, 20.00000000000001800 ) ;
#39 = FILL_AREA_STYLE ('',( #132 ) ) ;
#40 = UNCERTAINTY_MEASURE_WITH_UNIT (LENGTH_MEASURE( 1.000000000000000100E-005 ), #122, 'distance_accuracy_value', 'NONE');
#41 = CARTESIAN_POINT ( 'NONE',  ( 113.9119316741596200, 65.15563045701519200, 0.0000000000000000000 ) ) ;
#42 = ADVANCED_FACE ( 'NONE', ( #162 ), #52, .F. ) ;
#43 = LINE ( 'NONE', #178, #8 ) ;
#44 = DIRECTION ( 'NONE',  ( 0.0000000000000000000, 0.0000000000000000000, 1.000000000000000000 ) ) ;
#45 = CARTESIAN_POINT ( 'NONE',  ( 113.9119316741596200, 65.15563045701519200, 20.00000000000000400 ) ) ;
#46 = DIRECTION ( 'NONE',  ( 0.0000000000000000000, 0.0000000000000000000, 1.000000000000000000 ) ) ;
#47 = CARTESIAN_POINT ( 'NONE',  ( 0.0000000000000000000, 0.0000000000000000000, 0.0000000000000000000 ) ) ;
#48 = SPHERICAL_SURFACE ( 'NONE', #69, 51.64000000000000800 ) ;
#49 = ORIENTED_EDGE ( 'NONE', *, *, #166, .F. ) ;
#50 = EDGE_CURVE ( 'NONE', #17, #24, #82, .T. ) ;
#51 = PRODUCT_DEFINITION_CONTEXT ( 'detailed design', #77, 'design' ) ;
#52 = SPHERICAL_SURFACE ( 'NONE', #138, 51.64000000000000800 ) ;
#53 = AXIS2_PLACEMENT_3D ( 'NONE', #41, #120, #6 ) ;
#54 = EDGE_LOOP ( 'NONE', ( #70, #98, #92, #185, #14 ) ) ;
#55 = CARTESIAN_POINT ( 'NONE',  ( 120.4421679696420600, 65.15563045701519200, 0.0000000000000000000 ) ) ;
#56 = PRODUCT_DEFINITION ( 'Î´Öª', '', #158, #51 ) ;
#57 =( GEOMETRIC_REPRESENTATION_CONTEXT ( 3 ) GLOBAL_UNCERTAINTY_ASSIGNED_CONTEXT ( ( #106 ) ) GLOBAL_UNIT_ASSIGNED_CONTEXT ( ( #80, #165, #16 ) ) REPRESENTATION_CONTEXT ( 'NONE', 'WORKASPACE' ) );
#58 = ORIENTED_EDGE ( 'NONE', *, *, #171, .T. ) ;
#59 = CARTESIAN_POINT ( 'NONE',  ( 120.4421679696420600, 45.15563045701517800, 0.0000000000000000000 ) ) ;
#60 = ORIENTED_EDGE ( 'NONE', *, *, #4, .F. ) ;
#61 = SURFACE_SIDE_STYLE ('',( #28 ) ) ;
#62 = DIRECTION ( 'NONE',  ( 0.0000000000000000000, 0.0000000000000000000, 1.000000000000000000 ) ) ;
#63 = APPLICATION_PROTOCOL_DEFINITION ( 'draft international standard', 'automotive_design', 1998, #77 ) ;
#64 = ORIENTED_EDGE ( 'NONE', *, *, #140, .F. ) ;
#65 = FACE_OUTER_BOUND ( 'NONE', #54, .T. ) ;
#66 = ORIENTED_EDGE ( 'NONE', *, *, #182, .F. ) ;
#67 = ORIENTED_EDGE ( 'NONE', *, *, #10, .T. ) ;
#68 = AXIS2_PLACEMENT_3D ( 'NONE', #173, #104, #15 ) ;
#69 = AXIS2_PLACEMENT_3D ( 'NONE', #74, #91, #181 ) ;
#70 = ORIENTED_EDGE ( 'NONE', *, *, #171, .F. ) ;
#71 = ADVANCED_FACE ( 'NONE', ( #11 ), #129, .F. ) ;
#72 = STYLED_ITEM ( 'NONE', ( #124 ), #30 ) ;
#73 =( NAMED_UNIT ( * ) PLANE_ANGLE_UNIT ( ) SI_UNIT ( $, .RADIAN. ) );
#74 = CARTESIAN_POINT ( 'NONE',  ( 168.0519316741596200, 65.15563045701519200, 0.0000000000000000000 ) ) ;
#75 = DIRECTION ( 'NONE',  ( -1.000000000000000000, -0.0000000000000000000, -0.0000000000000000000 ) ) ;
#76 = ORIENTED_EDGE ( 'NONE', *, *, #50, .T. ) ;
#77 = APPLICATION_CONTEXT ( 'automotive_design' ) ;
#78 =( GEOMETRIC_REPRESENTATION_CONTEXT ( 3 ) GLOBAL_UNCERTAINTY_ASSIGNED_CONTEXT ( ( #40 ) ) GLOBAL_UNIT_ASSIGNED_CONTEXT ( ( #122, #73, #109 ) ) REPRESENTATION_CONTEXT ( 'NONE', 'WORKASPACE' ) );
#79 = AXIS2_PLACEMENT_3D ( 'NONE', #47, #126, #22 ) ;
#80 =( LENGTH_UNIT ( ) NAMED_UNIT ( * ) SI_UNIT ( .MILLI., .METRE. ) );
#81 = VECTOR ( 'NONE', #111, 1000.000000000000000 ) ;
#82 = CIRCLE ( 'NONE', #96, 51.64000000000000800 ) ;
#83 = DIRECTION ( 'NONE',  ( -1.000000000000000000, -0.0000000000000000000, -0.0000000000000000000 ) ) ;
#84 = FACE_OUTER_BOUND ( 'NONE', #85, .T. ) ;
#85 = EDGE_LOOP ( 'NONE', ( #29, #58, #108, #157, #169 ) ) ;
#86 = DIRECTION ( 'NONE',  ( 0.0000000000000000000, 0.0000000000000000000, -1.000000000000000000 ) ) ;
#87 = CIRCLE ( 'NONE', #90, 20.00000000000001800 ) ;
#88 = DIRECTION ( 'NONE',  ( 0.0000000000000000000, 0.0000000000000000000, 1.000000000000000000 ) ) ;
#89 = FILL_AREA_STYLE ('',( #94 ) ) ;
#90 = AXIS2_PLACEMENT_3D ( 'NONE', #37, #177, #88 ) ;
#91 = DIRECTION ( 'NONE',  ( 0.0000000000000000000, 0.0000000000000000000, 1.000000000000000000 ) ) ;
#92 = ORIENTED_EDGE ( 'NONE', *, *, #4, .T. ) ;
#93 = EDGE_CURVE ( 'NONE', #141, #145, #43, .T. ) ;
#94 = FILL_AREA_STYLE_COLOUR ( '', #136 ) ;
#95 = ORIENTED_EDGE ( 'NONE', *, *, #34, .T. ) ;
#96 = AXIS2_PLACEMENT_3D ( 'NONE', #99, #27, #135 ) ;
#97 = UNCERTAINTY_MEASURE_WITH_UNIT (LENGTH_MEASURE( 1.000000000000000100E-005 ), #5, 'distance_accuracy_value', 'NONE');
#98 = ORIENTED_EDGE ( 'NONE', *, *, #140, .T. ) ;
#99 = CARTESIAN_POINT ( 'NONE',  ( 168.0519316741596200, 65.15563045701519200, 0.0000000000000000000 ) ) ;
#100 = VERTEX_POINT ( 'NONE', #32 ) ;
#101 = AXIS2_PLACEMENT_3D ( 'NONE', #18, #21, #62 ) ;
#102 = PRODUCT_RELATED_PRODUCT_CATEGORY ( 'part', '', ( #25 ) ) ;
#103 = MECHANICAL_DESIGN_GEOMETRIC_PRESENTATION_REPRESENTATION (  '', ( #186 ), #114 ) ;
#104 = DIRECTION ( 'NONE',  ( -1.000000000000000000, -0.0000000000000000000, -0.0000000000000000000 ) ) ;
#105 = EDGE_LOOP ( 'NONE', ( #49, #76, #174, #64 ) ) ;
#106 = UNCERTAINTY_MEASURE_WITH_UNIT (LENGTH_MEASURE( 1.000000000000000100E-005 ), #80, 'distance_accuracy_value', 'NONE');
#107 = DIRECTION ( 'NONE',  ( 0.0000000000000000000, 0.0000000000000000000, 1.000000000000000000 ) ) ;
#108 = ORIENTED_EDGE ( 'NONE', *, *, #155, .F. ) ;
#109 =( NAMED_UNIT ( * ) SI_UNIT ( $, .STERADIAN. ) SOLID_ANGLE_UNIT ( ) );
#110 = DIRECTION ( 'NONE',  ( 0.0000000000000000000, 0.0000000000000000000, 1.000000000000000000 ) ) ;
#111 = DIRECTION ( 'NONE',  ( -1.000000000000000000, -0.0000000000000000000, -0.0000000000000000000 ) ) ;
#112 = EDGE_LOOP ( 'NONE', ( #146, #95 ) ) ;
#113 = AXIS2_PLACEMENT_3D ( 'NONE', #20, #150, #46 ) ;
#114 =( GEOMETRIC_REPRESENTATION_CONTEXT ( 3 ) GLOBAL_UNCERTAINTY_ASSIGNED_CONTEXT ( ( #97 ) ) GLOBAL_UNIT_ASSIGNED_CONTEXT ( ( #5, #123, #36 ) ) REPRESENTATION_CONTEXT ( 'NONE', 'WORKASPACE' ) );
#115 = CARTESIAN_POINT ( 'NONE',  ( 168.0519316741596200, 65.15563045701519200, 0.0000000000000000000 ) ) ;
#116 = CLOSED_SHELL ( 'NONE', ( #148, #42, #118, #131, #71 ) ) ;
#117 = PRODUCT_DEFINITION_SHAPE ( 'NONE', 'NONE',  #56 ) ;
#118 = ADVANCED_FACE ( 'NONE', ( #164 ), #48, .F. ) ;
#119 = AXIS2_PLACEMENT_3D ( 'NONE', #55, #83, #143 ) ;
#120 = DIRECTION ( 'NONE',  ( 1.000000000000000000, 0.0000000000000000000, 0.0000000000000000000 ) ) ;
#121 = LINE ( 'NONE', #33, #81 ) ;
#122 =( LENGTH_UNIT ( ) NAMED_UNIT ( * ) SI_UNIT ( .MILLI., .METRE. ) );
#123 =( NAMED_UNIT ( * ) PLANE_ANGLE_UNIT ( ) SI_UNIT ( $, .RADIAN. ) );
#124 = PRESENTATION_STYLE_ASSIGNMENT (( #144 ) ) ;
#125 = DIRECTION ( 'NONE',  ( -1.000000000000000000, -0.0000000000000000000, -0.0000000000000000000 ) ) ;
#126 = DIRECTION ( 'NONE',  ( 0.0000000000000000000, 0.0000000000000000000, 1.000000000000000000 ) ) ;
#127 = ADVANCED_BREP_SHAPE_REPRESENTATION ( '120047', ( #30, #79 ), #78 ) ;
#128 = VERTEX_POINT ( 'NONE', #59 ) ;
#129 = PLANE ( 'NONE',  #53 ) ;
#130 = EDGE_LOOP ( 'NONE', ( #172, #66, #60, #67 ) ) ;
#131 = ADVANCED_FACE ( 'NONE', ( #65 ), #161, .T. ) ;
#132 = FILL_AREA_STYLE_COLOUR ( '', #180 ) ;
#133 = DIRECTION ( 'NONE',  ( -1.000000000000000000, -0.0000000000000000000, -0.0000000000000000000 ) ) ;
#134 = PRESENTATION_LAYER_ASSIGNMENT (  '', '', ( #186 ) ) ;
#135 = DIRECTION ( 'NONE',  ( 0.0000000000000000000, -1.000000000000000000, -1.224646799147353200E-016 ) ) ;
#136 = COLOUR_RGB ( '',1.000000000000000000, 1.000000000000000000, 1.000000000000000000 ) ;
#137 = CIRCLE ( 'NONE', #119, 20.00000000000001800 ) ;
#138 = AXIS2_PLACEMENT_3D ( 'NONE', #115, #31, #1 ) ;
#139 = PRESENTATION_STYLE_ASSIGNMENT (( #168 ) ) ;
#140 = EDGE_CURVE ( 'NONE', #183, #128, #38, .T. ) ;
#141 = VERTEX_POINT ( 'NONE', #170 ) ;
#142 = DIRECTION ( 'NONE',  ( -1.000000000000000000, 0.0000000000000000000, 0.0000000000000000000 ) ) ;
#143 = DIRECTION ( 'NONE',  ( 0.0000000000000000000, 0.0000000000000000000, 1.000000000000000000 ) ) ;
#144 = SURFACE_STYLE_USAGE ( .BOTH. , #12 ) ;
#145 = VERTEX_POINT ( 'NONE', #45 ) ;
#146 = ORIENTED_EDGE ( 'NONE', *, *, #155, .T. ) ;
#147 = AXIS2_PLACEMENT_3D ( 'NONE', #3, #125, #110 ) ;
#148 = ADVANCED_FACE ( 'NONE', ( #84 ), #179, .T. ) ;
#149 = CARTESIAN_POINT ( 'NONE',  ( 120.4421679696420600, 85.15563045701520700, 2.449293598294708500E-015 ) ) ;
#150 = DIRECTION ( 'NONE',  ( -1.000000000000000000, -0.0000000000000000000, -0.0000000000000000000 ) ) ;
#151 = CIRCLE ( 'NONE', #13, 20.00000000000000400 ) ;
#152 = DIRECTION ( 'NONE',  ( -1.000000000000000000, -0.0000000000000000000, -0.0000000000000000000 ) ) ;
#153 = CARTESIAN_POINT ( 'NONE',  ( 120.4421679696420600, 65.15563045701519200, -20.00000000000002100 ) ) ;
#154 = CARTESIAN_POINT ( 'NONE',  ( 113.9119316741596200, 65.15563045701519200, 0.0000000000000000000 ) ) ;
#155 = EDGE_CURVE ( 'NONE', #145, #100, #151, .T. ) ;
#156 = SHAPE_DEFINITION_REPRESENTATION ( #117, #127 ) ;
#157 = ORIENTED_EDGE ( 'NONE', *, *, #93, .F. ) ;
#158 = PRODUCT_DEFINITION_FORMATION_WITH_SPECIFIED_SOURCE ( 'ÈÎºÎ', '', #25, .NOT_KNOWN. ) ;
#159 = AXIS2_PLACEMENT_3D ( 'NONE', #167, #133, #107 ) ;
#160 = CARTESIAN_POINT ( 'NONE',  ( 116.4119316741596300, 65.15563045701519200, 0.0000000000000000000 ) ) ;
#161 = CYLINDRICAL_SURFACE ( 'NONE', #101, 20.00000000000001100 ) ;
#162 = FACE_OUTER_BOUND ( 'NONE', #105, .T. ) ;
#163 = CARTESIAN_POINT ( 'NONE',  ( 168.0519316741596200, 65.15563045701519200, 0.0000000000000000000 ) ) ;
#164 = FACE_OUTER_BOUND ( 'NONE', #130, .T. ) ;
#165 =( NAMED_UNIT ( * ) PLANE_ANGLE_UNIT ( ) SI_UNIT ( $, .RADIAN. ) );
#166 = EDGE_CURVE ( 'NONE', #17, #183, #87, .T. ) ;
#167 = CARTESIAN_POINT ( 'NONE',  ( 105.6218371238301200, 65.15563045701519200, 0.0000000000000000000 ) ) ;
#168 = SURFACE_STYLE_USAGE ( .BOTH. , #61 ) ;
#169 = ORIENTED_EDGE ( 'NONE', *, *, #182, .T. ) ;
#170 = CARTESIAN_POINT ( 'NONE',  ( 120.4421679696420600, 65.15563045701519200, 20.00000000000002100 ) ) ;
#171 = EDGE_CURVE ( 'NONE', #183, #100, #121, .T. ) ;
#172 = ORIENTED_EDGE ( 'NONE', *, *, #50, .F. ) ;
#173 = CARTESIAN_POINT ( 'NONE',  ( 113.9119316741596200, 65.15563045701519200, 0.0000000000000000000 ) ) ;
#174 = ORIENTED_EDGE ( 'NONE', *, *, #10, .F. ) ;
#175 = SURFACE_STYLE_FILL_AREA ( #39 ) ;
#176 = MECHANICAL_DESIGN_GEOMETRIC_PRESENTATION_REPRESENTATION (  '', ( #72 ), #57 ) ;
#177 = DIRECTION ( 'NONE',  ( -1.000000000000000000, -0.0000000000000000000, -0.0000000000000000000 ) ) ;
#178 = CARTESIAN_POINT ( 'NONE',  ( 105.6218371238301200, 65.15563045701519200, 20.00000000000001100 ) ) ;
#179 = CYLINDRICAL_SURFACE ( 'NONE', #159, 20.00000000000001100 ) ;
#180 = COLOUR_RGB ( '',1.000000000000000000, 1.000000000000000000, 1.000000000000000000 ) ;
#181 = DIRECTION ( 'NONE',  ( 0.0000000000000000000, -1.000000000000000000, 0.0000000000000000000 ) ) ;
#182 = EDGE_CURVE ( 'NONE', #141, #17, #2, .T. ) ;
#183 = VERTEX_POINT ( 'NONE', #153 ) ;
#184 = AXIS2_PLACEMENT_3D ( 'NONE', #163, #86, #142 ) ;
#185 = ORIENTED_EDGE ( 'NONE', *, *, #93, .T. ) ;
#186 = STYLED_ITEM ( 'NONE', ( #139 ), #127 ) ;
ENDSEC;
END-ISO-10303-21;
