ISO-10303-21;
HEADER;
FILE_DESCRIPTION (( 'STEP AP214' ),
    '1' );
FILE_NAME ('120049.STEP',
    '2019-06-17T07:12:27',
    ( '' ),
    ( '' ),
    'SwSTEP 2.0',
    'SolidWorks 2016',
    '' );
FILE_SCHEMA (( 'AUTOMOTIVE_DESIGN' ));
ENDSEC;

DATA;
#1 = AXIS2_PLACEMENT_3D ( 'NONE', #98, #34, #47 ) ;
#2 = ORIENTED_EDGE ( 'NONE', *, *, #93, .F. ) ;
#3 = PLANE ( 'NONE',  #162 ) ;
#4 =( NAMED_UNIT ( * ) PLANE_ANGLE_UNIT ( ) SI_UNIT ( $, .RADIAN. ) );
#5 = FILL_AREA_STYLE_COLOUR ( '', #82 ) ;
#6 = DIRECTION ( 'NONE',  ( -1.000000000000000000, -0.0000000000000000000, -0.0000000000000000000 ) ) ;
#7 = CARTESIAN_POINT ( 'NONE',  ( 199.0317861896908500, 65.15563045701519200, 0.1550478392600696000 ) ) ;
#8 = DIRECTION ( 'NONE',  ( 1.000000000000000000, 0.0000000000000000000, 0.0000000000000000000 ) ) ;
#9 = CLOSED_SHELL ( 'NONE', ( #42, #74, #53, #123, #31 ) ) ;
#10 = DIRECTION ( 'NONE',  ( 0.0000000000000000000, 0.0000000000000000000, 1.000000000000000000 ) ) ;
#11 = AXIS2_PLACEMENT_3D ( 'NONE', #143, #161, #129 ) ;
#12 = PRODUCT_DEFINITION ( 'Î´Öª', '', #35, #164 ) ;
#13 = EDGE_CURVE ( 'NONE', #15, #86, #149, .T. ) ;
#14 = SURFACE_STYLE_FILL_AREA ( #79 ) ;
#15 = VERTEX_POINT ( 'NONE', #159 ) ;
#16 = EDGE_CURVE ( 'NONE', #86, #68, #78, .T. ) ;
#17 = CARTESIAN_POINT ( 'NONE',  ( 113.9119316741596200, 65.15563045701519200, -20.00000000000000400 ) ) ;
#18 = ORIENTED_EDGE ( 'NONE', *, *, #122, .T. ) ;
#19 = PRODUCT_DEFINITION_SHAPE ( 'NONE', 'NONE',  #12 ) ;
#20 = CARTESIAN_POINT ( 'NONE',  ( 105.6218371238301200, 65.15563045701519200, 0.0000000000000000000 ) ) ;
#21 = FACE_OUTER_BOUND ( 'NONE', #52, .T. ) ;
#22 = CARTESIAN_POINT ( 'NONE',  ( 113.9119316741596200, 65.15563045701519200, 20.00000000000000400 ) ) ;
#23 = SURFACE_STYLE_USAGE ( .BOTH. , #87 ) ;
#24 = LINE ( 'NONE', #113, #101 ) ;
#25 = CARTESIAN_POINT ( 'NONE',  ( 199.0317861896908500, 65.15563045701519200, -0.1550478392600696000 ) ) ;
#26 = CYLINDRICAL_SURFACE ( 'NONE', #119, 20.00000000000000400 ) ;
#27 = AXIS2_PLACEMENT_3D ( 'NONE', #154, #130, #48 ) ;
#28 = ORIENTED_EDGE ( 'NONE', *, *, #117, .T. ) ;
#29 = CIRCLE ( 'NONE', #38, 82.62000000000003300 ) ;
#30 = DIRECTION ( 'NONE',  ( -1.000000000000000000, -0.0000000000000000000, -0.0000000000000000000 ) ) ;
#31 = ADVANCED_FACE ( 'NONE', ( #21 ), #3, .F. ) ;
#32 = DIRECTION ( 'NONE',  ( 0.0000000000000000000, 0.0000000000000000000, 1.000000000000000000 ) ) ;
#33 =( LENGTH_UNIT ( ) NAMED_UNIT ( * ) SI_UNIT ( .MILLI., .METRE. ) );
#34 = DIRECTION ( 'NONE',  ( -1.000000000000000000, -0.0000000000000000000, -0.0000000000000000000 ) ) ;
#35 = PRODUCT_DEFINITION_FORMATION_WITH_SPECIFIED_SOURCE ( 'ÈÎºÎ', '', #128, .NOT_KNOWN. ) ;
#36 = CIRCLE ( 'NONE', #1, 20.00000000000000400 ) ;
#37 = CARTESIAN_POINT ( 'NONE',  ( 105.6218371238301200, 65.15563045701519200, 0.0000000000000000000 ) ) ;
#38 = AXIS2_PLACEMENT_3D ( 'NONE', #25, #80, #90 ) ;
#39 = SURFACE_STYLE_FILL_AREA ( #65 ) ;
#40 = UNCERTAINTY_MEASURE_WITH_UNIT (LENGTH_MEASURE( 1.000000000000000100E-005 ), #132, 'distance_accuracy_value', 'NONE');
#41 = CIRCLE ( 'NONE', #81, 82.62000000000003300 ) ;
#42 = ADVANCED_FACE ( 'NONE', ( #148 ), #144, .T. ) ;
#43 = DIRECTION ( 'NONE',  ( -1.000000000000000000, -0.0000000000000000000, -0.0000000000000000000 ) ) ;
#44 =( GEOMETRIC_REPRESENTATION_CONTEXT ( 3 ) GLOBAL_UNCERTAINTY_ASSIGNED_CONTEXT ( ( #51 ) ) GLOBAL_UNIT_ASSIGNED_CONTEXT ( ( #33, #63, #46 ) ) REPRESENTATION_CONTEXT ( 'NONE', 'WORKASPACE' ) );
#45 = EDGE_LOOP ( 'NONE', ( #91, #156, #50, #59 ) ) ;
#46 =( NAMED_UNIT ( * ) SI_UNIT ( $, .STERADIAN. ) SOLID_ANGLE_UNIT ( ) );
#47 = DIRECTION ( 'NONE',  ( 0.0000000000000000000, 0.0000000000000000000, 1.000000000000000000 ) ) ;
#48 = DIRECTION ( 'NONE',  ( 0.0000000000000000000, 0.0000000000000000000, 1.000000000000000000 ) ) ;
#49 = APPLICATION_CONTEXT ( 'automotive_design' ) ;
#50 = ORIENTED_EDGE ( 'NONE', *, *, #93, .T. ) ;
#51 = UNCERTAINTY_MEASURE_WITH_UNIT (LENGTH_MEASURE( 1.000000000000000100E-005 ), #33, 'distance_accuracy_value', 'NONE');
#52 = EDGE_LOOP ( 'NONE', ( #133, #158 ) ) ;
#53 = ADVANCED_FACE ( 'NONE', ( #64 ), #138, .F. ) ;
#54 = STYLED_ITEM ( 'NONE', ( #67 ), #150 ) ;
#55 = DIRECTION ( 'NONE',  ( 1.000000000000000000, 0.0000000000000000000, 0.0000000000000000000 ) ) ;
#56 = ORIENTED_EDGE ( 'NONE', *, *, #69, .F. ) ;
#57 = ADVANCED_BREP_SHAPE_REPRESENTATION ( '120049', ( #150, #147 ), #75 ) ;
#58 = DIRECTION ( 'NONE',  ( 0.0000000000000000000, 0.0000000000000000000, -1.000000000000000000 ) ) ;
#59 = ORIENTED_EDGE ( 'NONE', *, *, #16, .F. ) ;
#60 = CARTESIAN_POINT ( 'NONE',  ( 118.9078918347785700, 65.15563045701519200, 0.0000000000000000000 ) ) ;
#61 = CARTESIAN_POINT ( 'NONE',  ( 118.9078918347785700, 65.15563045701519200, 20.00000000000000700 ) ) ;
#62 = FILL_AREA_STYLE_COLOUR ( '', #111 ) ;
#63 =( NAMED_UNIT ( * ) PLANE_ANGLE_UNIT ( ) SI_UNIT ( $, .RADIAN. ) );
#64 = FACE_OUTER_BOUND ( 'NONE', #135, .T. ) ;
#65 = FILL_AREA_STYLE ('',( #5 ) ) ;
#66 = AXIS2_PLACEMENT_3D ( 'NONE', #60, #85, #109 ) ;
#67 = PRESENTATION_STYLE_ASSIGNMENT (( #152 ) ) ;
#68 = VERTEX_POINT ( 'NONE', #22 ) ;
#69 = EDGE_CURVE ( 'NONE', #68, #86, #36, .T. ) ;
#70 = ORIENTED_EDGE ( 'NONE', *, *, #122, .F. ) ;
#71 = TOROIDAL_SURFACE ( 'NONE', #27, -0.1550478392600696000, 82.62000000000003300 ) ;
#72 =( GEOMETRIC_REPRESENTATION_CONTEXT ( 3 ) GLOBAL_UNCERTAINTY_ASSIGNED_CONTEXT ( ( #131 ) ) GLOBAL_UNIT_ASSIGNED_CONTEXT ( ( #99, #88, #100 ) ) REPRESENTATION_CONTEXT ( 'NONE', 'WORKASPACE' ) );
#73 = DIRECTION ( 'NONE',  ( -1.000000000000000000, -0.0000000000000000000, -0.0000000000000000000 ) ) ;
#74 = ADVANCED_FACE ( 'NONE', ( #83 ), #71, .F. ) ;
#75 =( GEOMETRIC_REPRESENTATION_CONTEXT ( 3 ) GLOBAL_UNCERTAINTY_ASSIGNED_CONTEXT ( ( #40 ) ) GLOBAL_UNIT_ASSIGNED_CONTEXT ( ( #132, #4, #145 ) ) REPRESENTATION_CONTEXT ( 'NONE', 'WORKASPACE' ) );
#76 = CARTESIAN_POINT ( 'NONE',  ( 105.6218371238301200, 65.15563045701519200, -20.00000000000000400 ) ) ;
#77 = SURFACE_SIDE_STYLE ('',( #14 ) ) ;
#78 = CIRCLE ( 'NONE', #110, 20.00000000000000400 ) ;
#79 = FILL_AREA_STYLE ('',( #62 ) ) ;
#80 = DIRECTION ( 'NONE',  ( 0.0000000000000000000, -1.000000000000000000, 0.0000000000000000000 ) ) ;
#81 = AXIS2_PLACEMENT_3D ( 'NONE', #7, #112, #115 ) ;
#82 = COLOUR_RGB ( '',1.000000000000000000, 1.000000000000000000, 1.000000000000000000 ) ;
#83 = FACE_OUTER_BOUND ( 'NONE', #94, .T. ) ;
#84 = CARTESIAN_POINT ( 'NONE',  ( 113.9119316741596200, 65.15563045701519200, 0.0000000000000000000 ) ) ;
#85 = DIRECTION ( 'NONE',  ( -1.000000000000000000, -0.0000000000000000000, -0.0000000000000000000 ) ) ;
#86 = VERTEX_POINT ( 'NONE', #17 ) ;
#87 = SURFACE_SIDE_STYLE ('',( #39 ) ) ;
#88 =( NAMED_UNIT ( * ) PLANE_ANGLE_UNIT ( ) SI_UNIT ( $, .RADIAN. ) );
#89 = DIRECTION ( 'NONE',  ( 0.0000000000000000000, 0.0000000000000000000, 1.000000000000000000 ) ) ;
#90 = DIRECTION ( 'NONE',  ( 0.0000000000000000000, 0.0000000000000000000, -1.000000000000000000 ) ) ;
#91 = ORIENTED_EDGE ( 'NONE', *, *, #13, .F. ) ;
#92 = PRODUCT_CONTEXT ( 'NONE', #127, 'mechanical' ) ;
#93 = EDGE_CURVE ( 'NONE', #102, #68, #24, .T. ) ;
#94 = EDGE_LOOP ( 'NONE', ( #126, #18, #163 ) ) ;
#95 = DIRECTION ( 'NONE',  ( 0.0000000000000000000, 0.0000000000000000000, 1.000000000000000000 ) ) ;
#96 = VECTOR ( 'NONE', #73, 1000.000000000000000 ) ;
#97 = EDGE_CURVE ( 'NONE', #15, #102, #104, .T. ) ;
#98 = CARTESIAN_POINT ( 'NONE',  ( 113.9119316741596200, 65.15563045701519200, 0.0000000000000000000 ) ) ;
#99 =( LENGTH_UNIT ( ) NAMED_UNIT ( * ) SI_UNIT ( .MILLI., .METRE. ) );
#100 =( NAMED_UNIT ( * ) SI_UNIT ( $, .STERADIAN. ) SOLID_ANGLE_UNIT ( ) );
#101 = VECTOR ( 'NONE', #6, 1000.000000000000000 ) ;
#102 = VERTEX_POINT ( 'NONE', #61 ) ;
#103 = APPLICATION_PROTOCOL_DEFINITION ( 'draft international standard', 'automotive_design', 1998, #49 ) ;
#104 = CIRCLE ( 'NONE', #11, 20.00000000000000400 ) ;
#105 = STYLED_ITEM ( 'NONE', ( #116 ), #57 ) ;
#106 = PRESENTATION_LAYER_ASSIGNMENT (  '', '', ( #54 ) ) ;
#107 = CARTESIAN_POINT ( 'NONE',  ( 199.0317861896908500, 65.15563045701519200, 0.0000000000000000000 ) ) ;
#108 = CARTESIAN_POINT ( 'NONE',  ( 113.9119316741596200, 65.15563045701519200, 0.0000000000000000000 ) ) ;
#109 = DIRECTION ( 'NONE',  ( 0.0000000000000000000, 0.0000000000000000000, 1.000000000000000000 ) ) ;
#110 = AXIS2_PLACEMENT_3D ( 'NONE', #84, #43, #32 ) ;
#111 = COLOUR_RGB ( '',1.000000000000000000, 1.000000000000000000, 1.000000000000000000 ) ;
#112 = DIRECTION ( 'NONE',  ( -0.0000000000000000000, 1.000000000000000000, 1.224646799147353200E-016 ) ) ;
#113 = CARTESIAN_POINT ( 'NONE',  ( 105.6218371238301200, 65.15563045701519200, 20.00000000000000400 ) ) ;
#114 = CARTESIAN_POINT ( 'NONE',  ( 0.0000000000000000000, 0.0000000000000000000, 0.0000000000000000000 ) ) ;
#115 = DIRECTION ( 'NONE',  ( 0.0000000000000000000, -1.679712879183545200E-016, 1.000000000000000000 ) ) ;
#116 = PRESENTATION_STYLE_ASSIGNMENT (( #23 ) ) ;
#117 = EDGE_CURVE ( 'NONE', #102, #166, #29, .T. ) ;
#118 = ORIENTED_EDGE ( 'NONE', *, *, #13, .T. ) ;
#119 = AXIS2_PLACEMENT_3D ( 'NONE', #37, #140, #89 ) ;
#120 = CIRCLE ( 'NONE', #66, 20.00000000000000400 ) ;
#121 = ORIENTED_EDGE ( 'NONE', *, *, #136, .F. ) ;
#122 = EDGE_CURVE ( 'NONE', #15, #166, #41, .T. ) ;
#123 = ADVANCED_FACE ( 'NONE', ( #124 ), #26, .T. ) ;
#124 = FACE_OUTER_BOUND ( 'NONE', #45, .T. ) ;
#125 = DIRECTION ( 'NONE',  ( -1.000000000000000000, -0.0000000000000000000, -0.0000000000000000000 ) ) ;
#126 = ORIENTED_EDGE ( 'NONE', *, *, #97, .F. ) ;
#127 = APPLICATION_CONTEXT ( 'automotive_design' ) ;
#128 = PRODUCT ( '120049', '120049', '', ( #92 ) ) ;
#129 = DIRECTION ( 'NONE',  ( 0.0000000000000000000, 0.0000000000000000000, 1.000000000000000000 ) ) ;
#130 = DIRECTION ( 'NONE',  ( -1.000000000000000000, -0.0000000000000000000, -0.0000000000000000000 ) ) ;
#131 = UNCERTAINTY_MEASURE_WITH_UNIT (LENGTH_MEASURE( 1.000000000000000100E-005 ), #99, 'distance_accuracy_value', 'NONE');
#132 =( LENGTH_UNIT ( ) NAMED_UNIT ( * ) SI_UNIT ( .MILLI., .METRE. ) );
#133 = ORIENTED_EDGE ( 'NONE', *, *, #69, .T. ) ;
#134 = AXIS2_PLACEMENT_3D ( 'NONE', #20, #125, #95 ) ;
#135 = EDGE_LOOP ( 'NONE', ( #70, #121, #28 ) ) ;
#136 = EDGE_CURVE ( 'NONE', #102, #15, #120, .T. ) ;
#137 = MECHANICAL_DESIGN_GEOMETRIC_PRESENTATION_REPRESENTATION (  '', ( #105 ), #72 ) ;
#138 = TOROIDAL_SURFACE ( 'NONE', #142, -0.1550478392600696000, 82.62000000000003300 ) ;
#139 = DIRECTION ( 'NONE',  ( 0.0000000000000000000, 0.0000000000000000000, 1.000000000000000000 ) ) ;
#140 = DIRECTION ( 'NONE',  ( -1.000000000000000000, -0.0000000000000000000, -0.0000000000000000000 ) ) ;
#141 = APPLICATION_PROTOCOL_DEFINITION ( 'draft international standard', 'automotive_design', 1998, #127 ) ;
#142 = AXIS2_PLACEMENT_3D ( 'NONE', #107, #30, #139 ) ;
#143 = CARTESIAN_POINT ( 'NONE',  ( 118.9078918347785700, 65.15563045701519200, 0.0000000000000000000 ) ) ;
#144 = CYLINDRICAL_SURFACE ( 'NONE', #134, 20.00000000000000400 ) ;
#145 =( NAMED_UNIT ( * ) SI_UNIT ( $, .STERADIAN. ) SOLID_ANGLE_UNIT ( ) );
#146 = CARTESIAN_POINT ( 'NONE',  ( 116.4119316741596200, 65.15563045701519200, 0.0000000000000000000 ) ) ;
#147 = AXIS2_PLACEMENT_3D ( 'NONE', #114, #10, #8 ) ;
#148 = FACE_OUTER_BOUND ( 'NONE', #157, .T. ) ;
#149 = LINE ( 'NONE', #76, #96 ) ;
#150 = MANIFOLD_SOLID_BREP ( 'Ðý×ª1', #9 ) ;
#151 = PRESENTATION_LAYER_ASSIGNMENT (  '', '', ( #105 ) ) ;
#152 = SURFACE_STYLE_USAGE ( .BOTH. , #77 ) ;
#153 = MECHANICAL_DESIGN_GEOMETRIC_PRESENTATION_REPRESENTATION (  '', ( #54 ), #44 ) ;
#154 = CARTESIAN_POINT ( 'NONE',  ( 199.0317861896908500, 65.15563045701519200, 0.0000000000000000000 ) ) ;
#155 = ORIENTED_EDGE ( 'NONE', *, *, #136, .T. ) ;
#156 = ORIENTED_EDGE ( 'NONE', *, *, #97, .T. ) ;
#157 = EDGE_LOOP ( 'NONE', ( #155, #118, #56, #2 ) ) ;
#158 = ORIENTED_EDGE ( 'NONE', *, *, #16, .T. ) ;
#159 = CARTESIAN_POINT ( 'NONE',  ( 118.9078918347785700, 65.15563045701519200, -20.00000000000000700 ) ) ;
#160 = PRODUCT_RELATED_PRODUCT_CATEGORY ( 'part', '', ( #128 ) ) ;
#161 = DIRECTION ( 'NONE',  ( -1.000000000000000000, -0.0000000000000000000, -0.0000000000000000000 ) ) ;
#162 = AXIS2_PLACEMENT_3D ( 'NONE', #108, #55, #58 ) ;
#163 = ORIENTED_EDGE ( 'NONE', *, *, #117, .F. ) ;
#164 = PRODUCT_DEFINITION_CONTEXT ( 'detailed design', #49, 'design' ) ;
#165 = SHAPE_DEFINITION_REPRESENTATION ( #19, #57 ) ;
#166 = VERTEX_POINT ( 'NONE', #146 ) ;
ENDSEC;
END-ISO-10303-21;
