ISO-10303-21;
HEADER;
FILE_DESCRIPTION (( 'STEP AP214' ),
    '1' );
FILE_NAME ('120038.STEP',
    '2019-06-17T05:45:41',
    ( '' ),
    ( '' ),
    'SwSTEP 2.0',
    'SolidWorks 2016',
    '' );
FILE_SCHEMA (( 'AUTOMOTIVE_DESIGN' ));
ENDSEC;

DATA;
#1 = PRODUCT_DEFINITION ( 'Î´Öª', '', #50, #115 ) ;
#2 = ORIENTED_EDGE ( 'NONE', *, *, #129, .T. ) ;
#3 = CARTESIAN_POINT ( 'NONE',  ( 57.53233705252611700, 32.61076812922678400, 0.0000000000000000000 ) ) ;
#4 = ORIENTED_EDGE ( 'NONE', *, *, #90, .F. ) ;
#5 = CARTESIAN_POINT ( 'NONE',  ( 59.53233705252613800, 32.61076812922678400, 0.0000000000000000000 ) ) ;
#6 = DIRECTION ( 'NONE',  ( 0.0000000000000000000, 0.0000000000000000000, -1.000000000000000000 ) ) ;
#7 = DIRECTION ( 'NONE',  ( 1.000000000000000000, 0.0000000000000000000, 0.0000000000000000000 ) ) ;
#8 = DIRECTION ( 'NONE',  ( 0.0000000000000000000, 0.0000000000000000000, 1.000000000000000000 ) ) ;
#9 = DIRECTION ( 'NONE',  ( -1.000000000000000000, -0.0000000000000000000, -0.0000000000000000000 ) ) ;
#10 =( GEOMETRIC_REPRESENTATION_CONTEXT ( 3 ) GLOBAL_UNCERTAINTY_ASSIGNED_CONTEXT ( ( #75 ) ) GLOBAL_UNIT_ASSIGNED_CONTEXT ( ( #109, #37, #71 ) ) REPRESENTATION_CONTEXT ( 'NONE', 'WORKASPACE' ) );
#11 = MECHANICAL_DESIGN_GEOMETRIC_PRESENTATION_REPRESENTATION (  '', ( #110 ), #10 ) ;
#12 = VECTOR ( 'NONE', #22, 1000.000000000000000 ) ;
#13 = PRODUCT_DEFINITION_SHAPE ( 'NONE', 'NONE',  #1 ) ;
#14 = AXIS2_PLACEMENT_3D ( 'NONE', #57, #153, #47 ) ;
#15 = LINE ( 'NONE', #159, #12 ) ;
#16 = SURFACE_SIDE_STYLE ('',( #94 ) ) ;
#17 =( NAMED_UNIT ( * ) SI_UNIT ( $, .STERADIAN. ) SOLID_ANGLE_UNIT ( ) );
#18 = PRODUCT_RELATED_PRODUCT_CATEGORY ( 'part', '', ( #28 ) ) ;
#19 = DIRECTION ( 'NONE',  ( 0.0000000000000000000, 0.0000000000000000000, 1.000000000000000000 ) ) ;
#20 = AXIS2_PLACEMENT_3D ( 'NONE', #31, #78, #126 ) ;
#21 = FACE_OUTER_BOUND ( 'NONE', #100, .T. ) ;
#22 = DIRECTION ( 'NONE',  ( -1.000000000000000000, -0.0000000000000000000, -0.0000000000000000000 ) ) ;
#23 = CARTESIAN_POINT ( 'NONE',  ( 0.0000000000000000000, 0.0000000000000000000, 0.0000000000000000000 ) ) ;
#24 = ORIENTED_EDGE ( 'NONE', *, *, #26, .T. ) ;
#25 = CARTESIAN_POINT ( 'NONE',  ( 162.8122720916049100, 32.61076812922678400, 0.0000000000000000000 ) ) ;
#26 = EDGE_CURVE ( 'NONE', #82, #102, #15, .T. ) ;
#27 = FILL_AREA_STYLE_COLOUR ( '', #117 ) ;
#28 = PRODUCT ( '120038', '120038', '', ( #141 ) ) ;
#29 = CYLINDRICAL_SURFACE ( 'NONE', #42, 12.49999999999999600 ) ;
#30 = EDGE_LOOP ( 'NONE', ( #44, #134, #4 ) ) ;
#31 = CARTESIAN_POINT ( 'NONE',  ( 162.8122720916049100, 32.61076812922678400, -0.1158374882036100600 ) ) ;
#32 = CARTESIAN_POINT ( 'NONE',  ( 57.53233705252611700, 32.61076812922678400, -12.49999999999999600 ) ) ;
#33 = DIRECTION ( 'NONE',  ( -1.000000000000000000, -0.0000000000000000000, -0.0000000000000000000 ) ) ;
#34 = VERTEX_POINT ( 'NONE', #43 ) ;
#35 = CARTESIAN_POINT ( 'NONE',  ( 56.10091507999716500, 32.61076812922678400, -12.49999999999999600 ) ) ;
#36 = DIRECTION ( 'NONE',  ( 0.0000000000000000000, 0.0000000000000000000, 1.000000000000000000 ) ) ;
#37 =( NAMED_UNIT ( * ) PLANE_ANGLE_UNIT ( ) SI_UNIT ( $, .RADIAN. ) );
#38 = ORIENTED_EDGE ( 'NONE', *, *, #39, .T. ) ;
#39 = EDGE_CURVE ( 'NONE', #99, #102, #152, .T. ) ;
#40 = AXIS2_PLACEMENT_3D ( 'NONE', #3, #160, #93 ) ;
#41 = ORIENTED_EDGE ( 'NONE', *, *, #39, .F. ) ;
#42 = AXIS2_PLACEMENT_3D ( 'NONE', #143, #72, #58 ) ;
#43 = CARTESIAN_POINT ( 'NONE',  ( 60.27744425792968000, 32.61076812922678400, -12.49999999999994700 ) ) ;
#44 = ORIENTED_EDGE ( 'NONE', *, *, #53, .F. ) ;
#45 = ADVANCED_FACE ( 'NONE', ( #145 ), #77, .F. ) ;
#46 = DIRECTION ( 'NONE',  ( 0.0000000000000000000, 0.0000000000000000000, 1.000000000000000000 ) ) ;
#47 = DIRECTION ( 'NONE',  ( 0.0000000000000000000, 0.0000000000000000000, 1.000000000000000000 ) ) ;
#48 = COLOUR_RGB ( '',1.000000000000000000, 1.000000000000000000, 1.000000000000000000 ) ;
#49 = TOROIDAL_SURFACE ( 'NONE', #67, 0.1158374882036100600, 103.2800000000000000 ) ;
#50 = PRODUCT_DEFINITION_FORMATION_WITH_SPECIFIED_SOURCE ( 'ÈÎºÎ', '', #28, .NOT_KNOWN. ) ;
#51 = TOROIDAL_SURFACE ( 'NONE', #142, 0.1158374882036100600, 103.2800000000000000 ) ;
#52 = AXIS2_PLACEMENT_3D ( 'NONE', #147, #91, #6 ) ;
#53 = EDGE_CURVE ( 'NONE', #34, #82, #132, .T. ) ;
#54 = ORIENTED_EDGE ( 'NONE', *, *, #118, .T. ) ;
#55 = SURFACE_STYLE_USAGE ( .BOTH. , #16 ) ;
#56 = CARTESIAN_POINT ( 'NONE',  ( 60.27744425792968000, 32.61076812922678400, 0.0000000000000000000 ) ) ;
#57 = CARTESIAN_POINT ( 'NONE',  ( 60.27744425792968000, 32.61076812922678400, 0.0000000000000000000 ) ) ;
#58 = DIRECTION ( 'NONE',  ( 0.0000000000000000000, 0.0000000000000000000, 1.000000000000000000 ) ) ;
#59 = EDGE_CURVE ( 'NONE', #34, #97, #146, .T. ) ;
#60 = FACE_OUTER_BOUND ( 'NONE', #76, .T. ) ;
#61 = VECTOR ( 'NONE', #9, 1000.000000000000000 ) ;
#62 = STYLED_ITEM ( 'NONE', ( #131 ), #92 ) ;
#63 = CYLINDRICAL_SURFACE ( 'NONE', #123, 12.49999999999999600 ) ;
#64 = AXIS2_PLACEMENT_3D ( 'NONE', #56, #89, #19 ) ;
#65 = ORIENTED_EDGE ( 'NONE', *, *, #53, .T. ) ;
#66 = ORIENTED_EDGE ( 'NONE', *, *, #118, .F. ) ;
#67 = AXIS2_PLACEMENT_3D ( 'NONE', #162, #83, #163 ) ;
#68 =( LENGTH_UNIT ( ) NAMED_UNIT ( * ) SI_UNIT ( .MILLI., .METRE. ) );
#69 = EDGE_LOOP ( 'NONE', ( #54, #38 ) ) ;
#70 = SURFACE_STYLE_USAGE ( .BOTH. , #113 ) ;
#71 =( NAMED_UNIT ( * ) SI_UNIT ( $, .STERADIAN. ) SOLID_ANGLE_UNIT ( ) );
#72 = DIRECTION ( 'NONE',  ( -1.000000000000000000, -0.0000000000000000000, -0.0000000000000000000 ) ) ;
#73 = MECHANICAL_DESIGN_GEOMETRIC_PRESENTATION_REPRESENTATION (  '', ( #62 ), #149 ) ;
#74 = SHAPE_DEFINITION_REPRESENTATION ( #13, #133 ) ;
#75 = UNCERTAINTY_MEASURE_WITH_UNIT (LENGTH_MEASURE( 1.000000000000000100E-005 ), #109, 'distance_accuracy_value', 'NONE');
#76 = EDGE_LOOP ( 'NONE', ( #112, #157, #85 ) ) ;
#77 = PLANE ( 'NONE',  #52 ) ;
#78 = DIRECTION ( 'NONE',  ( -0.0000000000000000000, 1.000000000000000000, 1.224646799147353200E-016 ) ) ;
#79 = CARTESIAN_POINT ( 'NONE',  ( 57.53233705252611700, 32.61076812922678400, 0.0000000000000000000 ) ) ;
#80 = DIRECTION ( 'NONE',  ( 0.0000000000000000000, 0.0000000000000000000, 1.000000000000000000 ) ) ;
#81 = FILL_AREA_STYLE ('',( #27 ) ) ;
#82 = VERTEX_POINT ( 'NONE', #148 ) ;
#83 = DIRECTION ( 'NONE',  ( -1.000000000000000000, -0.0000000000000000000, -0.0000000000000000000 ) ) ;
#84 = AXIS2_PLACEMENT_3D ( 'NONE', #23, #80, #7 ) ;
#85 = ORIENTED_EDGE ( 'NONE', *, *, #90, .T. ) ;
#86 = FACE_OUTER_BOUND ( 'NONE', #116, .T. ) ;
#87 = ORIENTED_EDGE ( 'NONE', *, *, #154, .T. ) ;
#88 = SURFACE_STYLE_FILL_AREA ( #81 ) ;
#89 = DIRECTION ( 'NONE',  ( -1.000000000000000000, -0.0000000000000000000, -0.0000000000000000000 ) ) ;
#90 = EDGE_CURVE ( 'NONE', #82, #97, #104, .T. ) ;
#91 = DIRECTION ( 'NONE',  ( 1.000000000000000000, 0.0000000000000000000, 0.0000000000000000000 ) ) ;
#92 = MANIFOLD_SOLID_BREP ( 'Ðý×ª1', #165 ) ;
#93 = DIRECTION ( 'NONE',  ( 0.0000000000000000000, 0.0000000000000000000, 1.000000000000000000 ) ) ;
#94 = SURFACE_STYLE_FILL_AREA ( #124 ) ;
#95 = CARTESIAN_POINT ( 'NONE',  ( 56.10091507999716500, 32.61076812922678400, 0.0000000000000000000 ) ) ;
#96 = APPLICATION_CONTEXT ( 'automotive_design' ) ;
#97 = VERTEX_POINT ( 'NONE', #5 ) ;
#98 =( NAMED_UNIT ( * ) SI_UNIT ( $, .STERADIAN. ) SOLID_ANGLE_UNIT ( ) );
#99 = VERTEX_POINT ( 'NONE', #32 ) ;
#100 = EDGE_LOOP ( 'NONE', ( #121, #65, #24, #41 ) ) ;
#101 =( GEOMETRIC_REPRESENTATION_CONTEXT ( 3 ) GLOBAL_UNCERTAINTY_ASSIGNED_CONTEXT ( ( #103 ) ) GLOBAL_UNIT_ASSIGNED_CONTEXT ( ( #150, #107, #98 ) ) REPRESENTATION_CONTEXT ( 'NONE', 'WORKASPACE' ) );
#102 = VERTEX_POINT ( 'NONE', #136 ) ;
#103 = UNCERTAINTY_MEASURE_WITH_UNIT (LENGTH_MEASURE( 1.000000000000000100E-005 ), #150, 'distance_accuracy_value', 'NONE');
#104 = CIRCLE ( 'NONE', #135, 103.2800000000000000 ) ;
#105 = FILL_AREA_STYLE_COLOUR ( '', #48 ) ;
#106 = DIRECTION ( 'NONE',  ( 0.0000000000000000000, -1.000000000000000000, 0.0000000000000000000 ) ) ;
#107 =( NAMED_UNIT ( * ) PLANE_ANGLE_UNIT ( ) SI_UNIT ( $, .RADIAN. ) );
#108 = ADVANCED_FACE ( 'NONE', ( #86 ), #29, .T. ) ;
#109 =( LENGTH_UNIT ( ) NAMED_UNIT ( * ) SI_UNIT ( .MILLI., .METRE. ) );
#110 = STYLED_ITEM ( 'NONE', ( #138 ), #133 ) ;
#111 = APPLICATION_CONTEXT ( 'automotive_design' ) ;
#112 = ORIENTED_EDGE ( 'NONE', *, *, #59, .F. ) ;
#113 = SURFACE_SIDE_STYLE ('',( #88 ) ) ;
#114 = UNCERTAINTY_MEASURE_WITH_UNIT (LENGTH_MEASURE( 1.000000000000000100E-005 ), #68, 'distance_accuracy_value', 'NONE');
#115 = PRODUCT_DEFINITION_CONTEXT ( 'detailed design', #111, 'design' ) ;
#116 = EDGE_LOOP ( 'NONE', ( #2, #87, #66, #137 ) ) ;
#117 = COLOUR_RGB ( '',1.000000000000000000, 1.000000000000000000, 1.000000000000000000 ) ;
#118 = EDGE_CURVE ( 'NONE', #102, #99, #125, .T. ) ;
#119 = PRESENTATION_LAYER_ASSIGNMENT (  '', '', ( #110 ) ) ;
#120 = ADVANCED_FACE ( 'NONE', ( #155 ), #49, .F. ) ;
#121 = ORIENTED_EDGE ( 'NONE', *, *, #154, .F. ) ;
#122 = DIRECTION ( 'NONE',  ( 0.0000000000000000000, 0.0000000000000000000, -1.000000000000000000 ) ) ;
#123 = AXIS2_PLACEMENT_3D ( 'NONE', #95, #164, #36 ) ;
#124 = FILL_AREA_STYLE ('',( #105 ) ) ;
#125 = CIRCLE ( 'NONE', #166, 12.49999999999999600 ) ;
#126 = DIRECTION ( 'NONE',  ( 0.0000000000000000000, -1.343705248626496600E-016, 1.000000000000000000 ) ) ;
#127 = APPLICATION_PROTOCOL_DEFINITION ( 'draft international standard', 'automotive_design', 1998, #111 ) ;
#128 = DIRECTION ( 'NONE',  ( -1.000000000000000000, -0.0000000000000000000, -0.0000000000000000000 ) ) ;
#129 = EDGE_CURVE ( 'NONE', #82, #34, #156, .T. ) ;
#130 = LINE ( 'NONE', #35, #61 ) ;
#131 = PRESENTATION_STYLE_ASSIGNMENT (( #55 ) ) ;
#132 = CIRCLE ( 'NONE', #64, 12.49999999999999600 ) ;
#133 = ADVANCED_BREP_SHAPE_REPRESENTATION ( '120038', ( #92, #84 ), #101 ) ;
#134 = ORIENTED_EDGE ( 'NONE', *, *, #59, .T. ) ;
#135 = AXIS2_PLACEMENT_3D ( 'NONE', #140, #106, #122 ) ;
#136 = CARTESIAN_POINT ( 'NONE',  ( 57.53233705252611700, 32.61076812922678400, 12.49999999999999600 ) ) ;
#137 = ORIENTED_EDGE ( 'NONE', *, *, #26, .F. ) ;
#138 = PRESENTATION_STYLE_ASSIGNMENT (( #70 ) ) ;
#139 = ADVANCED_FACE ( 'NONE', ( #60 ), #51, .F. ) ;
#140 = CARTESIAN_POINT ( 'NONE',  ( 162.8122720916049100, 32.61076812922678400, 0.1158374882036100600 ) ) ;
#141 = PRODUCT_CONTEXT ( 'NONE', #96, 'mechanical' ) ;
#142 = AXIS2_PLACEMENT_3D ( 'NONE', #25, #33, #46 ) ;
#143 = CARTESIAN_POINT ( 'NONE',  ( 56.10091507999716500, 32.61076812922678400, 0.0000000000000000000 ) ) ;
#144 = PRESENTATION_LAYER_ASSIGNMENT (  '', '', ( #62 ) ) ;
#145 = FACE_OUTER_BOUND ( 'NONE', #69, .T. ) ;
#146 = CIRCLE ( 'NONE', #20, 103.2800000000000000 ) ;
#147 = CARTESIAN_POINT ( 'NONE',  ( 57.53233705252611700, 32.61076812922678400, 0.0000000000000000000 ) ) ;
#148 = CARTESIAN_POINT ( 'NONE',  ( 60.27744425792968000, 32.61076812922678400, 12.49999999999994700 ) ) ;
#149 =( GEOMETRIC_REPRESENTATION_CONTEXT ( 3 ) GLOBAL_UNCERTAINTY_ASSIGNED_CONTEXT ( ( #114 ) ) GLOBAL_UNIT_ASSIGNED_CONTEXT ( ( #68, #158, #17 ) ) REPRESENTATION_CONTEXT ( 'NONE', 'WORKASPACE' ) );
#150 =( LENGTH_UNIT ( ) NAMED_UNIT ( * ) SI_UNIT ( .MILLI., .METRE. ) );
#151 = APPLICATION_PROTOCOL_DEFINITION ( 'draft international standard', 'automotive_design', 1998, #96 ) ;
#152 = CIRCLE ( 'NONE', #40, 12.49999999999999600 ) ;
#153 = DIRECTION ( 'NONE',  ( -1.000000000000000000, -0.0000000000000000000, -0.0000000000000000000 ) ) ;
#154 = EDGE_CURVE ( 'NONE', #34, #99, #130, .T. ) ;
#155 = FACE_OUTER_BOUND ( 'NONE', #30, .T. ) ;
#156 = CIRCLE ( 'NONE', #14, 12.49999999999999600 ) ;
#157 = ORIENTED_EDGE ( 'NONE', *, *, #129, .F. ) ;
#158 =( NAMED_UNIT ( * ) PLANE_ANGLE_UNIT ( ) SI_UNIT ( $, .RADIAN. ) );
#159 = CARTESIAN_POINT ( 'NONE',  ( 56.10091507999716500, 32.61076812922678400, 12.49999999999999600 ) ) ;
#160 = DIRECTION ( 'NONE',  ( -1.000000000000000000, -0.0000000000000000000, -0.0000000000000000000 ) ) ;
#161 = ADVANCED_FACE ( 'NONE', ( #21 ), #63, .T. ) ;
#162 = CARTESIAN_POINT ( 'NONE',  ( 162.8122720916049100, 32.61076812922678400, 0.0000000000000000000 ) ) ;
#163 = DIRECTION ( 'NONE',  ( 0.0000000000000000000, 0.0000000000000000000, 1.000000000000000000 ) ) ;
#164 = DIRECTION ( 'NONE',  ( -1.000000000000000000, -0.0000000000000000000, -0.0000000000000000000 ) ) ;
#165 = CLOSED_SHELL ( 'NONE', ( #108, #120, #139, #161, #45 ) ) ;
#166 = AXIS2_PLACEMENT_3D ( 'NONE', #79, #128, #8 ) ;
ENDSEC;
END-ISO-10303-21;
