ISO-10303-21;
HEADER;
FILE_DESCRIPTION (( 'STEP AP214' ),
    '1' );
FILE_NAME ('120046.STEP',
    '2019-06-17T06:54:12',
    ( '' ),
    ( '' ),
    'SwSTEP 2.0',
    'SolidWorks 2016',
    '' );
FILE_SCHEMA (( 'AUTOMOTIVE_DESIGN' ));
ENDSEC;

DATA;
#1 = DIRECTION ( 'NONE',  ( 0.0000000000000000000, 0.0000000000000000000, 1.000000000000000000 ) ) ;
#2 = SURFACE_STYLE_FILL_AREA ( #35 ) ;
#3 = ORIENTED_EDGE ( 'NONE', *, *, #111, .F. ) ;
#4 = PRESENTATION_LAYER_ASSIGNMENT (  '', '', ( #140 ) ) ;
#5 = DIRECTION ( 'NONE',  ( -1.000000000000000000, -0.0000000000000000000, -0.0000000000000000000 ) ) ;
#6 = FACE_OUTER_BOUND ( 'NONE', #136, .T. ) ;
#7 =( LENGTH_UNIT ( ) NAMED_UNIT ( * ) SI_UNIT ( .MILLI., .METRE. ) );
#8 = SURFACE_SIDE_STYLE ('',( #177 ) ) ;
#9 = VECTOR ( 'NONE', #116, 1000.000000000000000 ) ;
#10 = DIRECTION ( 'NONE',  ( -1.000000000000000000, -0.0000000000000000000, -0.0000000000000000000 ) ) ;
#11 = EDGE_LOOP ( 'NONE', ( #157, #171 ) ) ;
#12 = FACE_OUTER_BOUND ( 'NONE', #49, .T. ) ;
#13 = VERTEX_POINT ( 'NONE', #141 ) ;
#14 = PRODUCT ( '120046', '120046', '', ( #106 ) ) ;
#15 = ORIENTED_EDGE ( 'NONE', *, *, #37, .F. ) ;
#16 = MECHANICAL_DESIGN_GEOMETRIC_PRESENTATION_REPRESENTATION (  '', ( #156 ), #170 ) ;
#17 = DIRECTION ( 'NONE',  ( -1.000000000000000000, -0.0000000000000000000, -0.0000000000000000000 ) ) ;
#18 = DIRECTION ( 'NONE',  ( 0.0000000000000000000, 1.000000000000000000, 1.224646799147353200E-016 ) ) ;
#19 = SURFACE_STYLE_USAGE ( .BOTH. , #57 ) ;
#20 = CARTESIAN_POINT ( 'NONE',  ( 0.0000000000000000000, 0.0000000000000000000, 0.0000000000000000000 ) ) ;
#21 = DIRECTION ( 'NONE',  ( -1.000000000000000000, -0.0000000000000000000, -0.0000000000000000000 ) ) ;
#22 = AXIS2_PLACEMENT_3D ( 'NONE', #20, #48, #36 ) ;
#23 =( NAMED_UNIT ( * ) PLANE_ANGLE_UNIT ( ) SI_UNIT ( $, .RADIAN. ) );
#24 = ORIENTED_EDGE ( 'NONE', *, *, #76, .T. ) ;
#25 = FACE_OUTER_BOUND ( 'NONE', #11, .T. ) ;
#26 = VERTEX_POINT ( 'NONE', #129 ) ;
#27 = CARTESIAN_POINT ( 'NONE',  ( 122.8099401095107300, 65.22153625845356800, 0.0000000000000000000 ) ) ;
#28 = CYLINDRICAL_SURFACE ( 'NONE', #185, 19.99999999999998900 ) ;
#29 = DIRECTION ( 'NONE',  ( -1.000000000000000000, -0.0000000000000000000, -0.0000000000000000000 ) ) ;
#30 = CARTESIAN_POINT ( 'NONE',  ( 158.9442728140176700, 65.22153625845355400, 0.0000000000000000000 ) ) ;
#31 = DIRECTION ( 'NONE',  ( -1.000000000000000000, -0.0000000000000000000, -0.0000000000000000000 ) ) ;
#32 = CARTESIAN_POINT ( 'NONE',  ( 122.8099401095107300, 65.22153625845356800, -19.99999999999998900 ) ) ;
#33 = CARTESIAN_POINT ( 'NONE',  ( 158.9442728140176700, 65.22153625845355400, 0.0000000000000000000 ) ) ;
#34 = ADVANCED_FACE ( 'NONE', ( #125 ), #79, .F. ) ;
#35 = FILL_AREA_STYLE ('',( #145 ) ) ;
#36 = DIRECTION ( 'NONE',  ( 1.000000000000000000, 0.0000000000000000000, 0.0000000000000000000 ) ) ;
#37 = EDGE_CURVE ( 'NONE', #152, #164, #77, .T. ) ;
#38 = ORIENTED_EDGE ( 'NONE', *, *, #93, .F. ) ;
#39 = CIRCLE ( 'NONE', #172, 19.99999999999998900 ) ;
#40 = CIRCLE ( 'NONE', #124, 41.29999999999997600 ) ;
#41 = CIRCLE ( 'NONE', #121, 41.29999999999997600 ) ;
#42 = UNCERTAINTY_MEASURE_WITH_UNIT (LENGTH_MEASURE( 1.000000000000000100E-005 ), #100, 'distance_accuracy_value', 'NONE');
#43 = AXIS2_PLACEMENT_3D ( 'NONE', #63, #17, #114 ) ;
#44 = DIRECTION ( 'NONE',  ( 0.0000000000000000000, 0.0000000000000000000, 1.000000000000000000 ) ) ;
#45 = FILL_AREA_STYLE_COLOUR ( '', #55 ) ;
#46 =( NAMED_UNIT ( * ) SI_UNIT ( $, .STERADIAN. ) SOLID_ANGLE_UNIT ( ) );
#47 = PRODUCT_RELATED_PRODUCT_CATEGORY ( 'part', '', ( #14 ) ) ;
#48 = DIRECTION ( 'NONE',  ( 0.0000000000000000000, 0.0000000000000000000, 1.000000000000000000 ) ) ;
#49 = EDGE_LOOP ( 'NONE', ( #75, #112, #88, #60, #95 ) ) ;
#50 = ORIENTED_EDGE ( 'NONE', *, *, #101, .F. ) ;
#51 = PRESENTATION_STYLE_ASSIGNMENT (( #19 ) ) ;
#52 = EDGE_LOOP ( 'NONE', ( #132, #24, #50, #91 ) ) ;
#53 = DIRECTION ( 'NONE',  ( 0.0000000000000000000, 0.0000000000000000000, 1.000000000000000000 ) ) ;
#54 =( NAMED_UNIT ( * ) PLANE_ANGLE_UNIT ( ) SI_UNIT ( $, .RADIAN. ) );
#55 = COLOUR_RGB ( '',1.000000000000000000, 1.000000000000000000, 1.000000000000000000 ) ;
#56 = CARTESIAN_POINT ( 'NONE',  ( 122.8099401095107300, 65.22153625845356800, 19.99999999999998900 ) ) ;
#57 = SURFACE_SIDE_STYLE ('',( #2 ) ) ;
#58 = DIRECTION ( 'NONE',  ( -1.000000000000000000, -0.0000000000000000000, -0.0000000000000000000 ) ) ;
#59 = AXIS2_PLACEMENT_3D ( 'NONE', #30, #65, #176 ) ;
#60 = ORIENTED_EDGE ( 'NONE', *, *, #148, .F. ) ;
#61 = FACE_OUTER_BOUND ( 'NONE', #80, .T. ) ;
#62 = CARTESIAN_POINT ( 'NONE',  ( 122.8099401095107300, 65.22153625845356800, 0.0000000000000000000 ) ) ;
#63 = CARTESIAN_POINT ( 'NONE',  ( 122.8099401095107300, 65.22153625845356800, 0.0000000000000000000 ) ) ;
#64 = VECTOR ( 'NONE', #10, 1000.000000000000000 ) ;
#65 = DIRECTION ( 'NONE',  ( 0.0000000000000000000, 0.0000000000000000000, -1.000000000000000000 ) ) ;
#66 = SHAPE_DEFINITION_REPRESENTATION ( #126, #105 ) ;
#67 = DIRECTION ( 'NONE',  ( 1.000000000000000000, 0.0000000000000000000, 0.0000000000000000000 ) ) ;
#68 = AXIS2_PLACEMENT_3D ( 'NONE', #27, #98, #44 ) ;
#69 = CARTESIAN_POINT ( 'NONE',  ( 115.1442728140176700, 65.22153625845356800, 0.0000000000000000000 ) ) ;
#70 = CIRCLE ( 'NONE', #139, 19.99999999999998900 ) ;
#71 = PRODUCT_DEFINITION_CONTEXT ( 'detailed design', #107, 'design' ) ;
#72 = UNCERTAINTY_MEASURE_WITH_UNIT (LENGTH_MEASURE( 1.000000000000000100E-005 ), #179, 'distance_accuracy_value', 'NONE');
#73 = EDGE_CURVE ( 'NONE', #161, #26, #115, .T. ) ;
#74 = CIRCLE ( 'NONE', #68, 19.99999999999998900 ) ;
#75 = ORIENTED_EDGE ( 'NONE', *, *, #85, .T. ) ;
#76 = EDGE_CURVE ( 'NONE', #164, #109, #41, .T. ) ;
#77 = CIRCLE ( 'NONE', #43, 19.99999999999998900 ) ;
#78 = PRESENTATION_STYLE_ASSIGNMENT (( #178 ) ) ;
#79 = SPHERICAL_SURFACE ( 'NONE', #59, 41.29999999999997600 ) ;
#80 = EDGE_LOOP ( 'NONE', ( #3, #104, #128, #169, #38 ) ) ;
#81 = EDGE_CURVE ( 'NONE', #154, #13, #70, .T. ) ;
#82 = FILL_AREA_STYLE ('',( #45 ) ) ;
#83 =( NAMED_UNIT ( * ) PLANE_ANGLE_UNIT ( ) SI_UNIT ( $, .RADIAN. ) );
#84 = CARTESIAN_POINT ( 'NONE',  ( 103.2333421658140700, 65.22153625845356800, 0.0000000000000000000 ) ) ;
#85 = EDGE_CURVE ( 'NONE', #13, #152, #74, .T. ) ;
#86 = ADVANCED_FACE ( 'NONE', ( #12 ), #182, .T. ) ;
#87 = DIRECTION ( 'NONE',  ( 1.000000000000000000, 0.0000000000000000000, 0.0000000000000000000 ) ) ;
#88 = ORIENTED_EDGE ( 'NONE', *, *, #73, .F. ) ;
#89 = UNCERTAINTY_MEASURE_WITH_UNIT (LENGTH_MEASURE( 1.000000000000000100E-005 ), #7, 'distance_accuracy_value', 'NONE');
#90 = CLOSED_SHELL ( 'NONE', ( #86, #34, #118, #150, #184 ) ) ;
#91 = ORIENTED_EDGE ( 'NONE', *, *, #81, .F. ) ;
#92 = EDGE_CURVE ( 'NONE', #164, #154, #39, .T. ) ;
#93 = EDGE_CURVE ( 'NONE', #26, #161, #119, .T. ) ;
#94 = COLOUR_RGB ( '',1.000000000000000000, 1.000000000000000000, 1.000000000000000000 ) ;
#95 = ORIENTED_EDGE ( 'NONE', *, *, #81, .T. ) ;
#96 = DIRECTION ( 'NONE',  ( 0.0000000000000000000, 0.0000000000000000000, 1.000000000000000000 ) ) ;
#97 = AXIS2_PLACEMENT_3D ( 'NONE', #155, #5, #1 ) ;
#98 = DIRECTION ( 'NONE',  ( -1.000000000000000000, -0.0000000000000000000, -0.0000000000000000000 ) ) ;
#99 = CARTESIAN_POINT ( 'NONE',  ( 103.2333421658140700, 65.22153625845356800, -19.99999999999998900 ) ) ;
#100 =( LENGTH_UNIT ( ) NAMED_UNIT ( * ) SI_UNIT ( .MILLI., .METRE. ) );
#101 = EDGE_CURVE ( 'NONE', #13, #109, #40, .T. ) ;
#102 =( NAMED_UNIT ( * ) SI_UNIT ( $, .STERADIAN. ) SOLID_ANGLE_UNIT ( ) );
#103 = DIRECTION ( 'NONE',  ( 0.0000000000000000000, 0.0000000000000000000, 1.000000000000000000 ) ) ;
#104 = ORIENTED_EDGE ( 'NONE', *, *, #37, .T. ) ;
#105 = ADVANCED_BREP_SHAPE_REPRESENTATION ( '120046', ( #175, #22 ), #158 ) ;
#106 = PRODUCT_CONTEXT ( 'NONE', #120, 'mechanical' ) ;
#107 = APPLICATION_CONTEXT ( 'automotive_design' ) ;
#108 = AXIS2_PLACEMENT_3D ( 'NONE', #69, #67, #135 ) ;
#109 = VERTEX_POINT ( 'NONE', #163 ) ;
#110 = PRESENTATION_LAYER_ASSIGNMENT (  '', '', ( #156 ) ) ;
#111 = EDGE_CURVE ( 'NONE', #152, #26, #153, .T. ) ;
#112 = ORIENTED_EDGE ( 'NONE', *, *, #111, .T. ) ;
#113 = DIRECTION ( 'NONE',  ( 0.0000000000000000000, 1.224646799147353200E-016, -1.000000000000000000 ) ) ;
#114 = DIRECTION ( 'NONE',  ( 0.0000000000000000000, 0.0000000000000000000, 1.000000000000000000 ) ) ;
#115 = CIRCLE ( 'NONE', #160, 19.99999999999998900 ) ;
#116 = DIRECTION ( 'NONE',  ( -1.000000000000000000, -0.0000000000000000000, -0.0000000000000000000 ) ) ;
#117 = CARTESIAN_POINT ( 'NONE',  ( 115.1442728140176700, 65.22153625845356800, 0.0000000000000000000 ) ) ;
#118 = ADVANCED_FACE ( 'NONE', ( #6 ), #186, .F. ) ;
#119 = CIRCLE ( 'NONE', #137, 19.99999999999998900 ) ;
#120 = APPLICATION_CONTEXT ( 'automotive_design' ) ;
#121 = AXIS2_PLACEMENT_3D ( 'NONE', #142, #113, #18 ) ;
#122 = CARTESIAN_POINT ( 'NONE',  ( 103.2333421658140700, 65.22153625845356800, 19.99999999999998900 ) ) ;
#123 = ORIENTED_EDGE ( 'NONE', *, *, #85, .F. ) ;
#124 = AXIS2_PLACEMENT_3D ( 'NONE', #33, #130, #87 ) ;
#125 = FACE_OUTER_BOUND ( 'NONE', #52, .T. ) ;
#126 = PRODUCT_DEFINITION_SHAPE ( 'NONE', 'NONE',  #127 ) ;
#127 = PRODUCT_DEFINITION ( 'Î´Öª', '', #167, #71 ) ;
#128 = ORIENTED_EDGE ( 'NONE', *, *, #92, .T. ) ;
#129 = CARTESIAN_POINT ( 'NONE',  ( 115.1442728140176700, 65.22153625845356800, -19.99999999999998900 ) ) ;
#130 = DIRECTION ( 'NONE',  ( 0.0000000000000000000, 0.0000000000000000000, 1.000000000000000000 ) ) ;
#131 = DIRECTION ( 'NONE',  ( 0.0000000000000000000, 0.0000000000000000000, -1.000000000000000000 ) ) ;
#132 = ORIENTED_EDGE ( 'NONE', *, *, #92, .F. ) ;
#133 = DIRECTION ( 'NONE',  ( 0.0000000000000000000, 1.000000000000000000, 0.0000000000000000000 ) ) ;
#134 = APPLICATION_PROTOCOL_DEFINITION ( 'draft international standard', 'automotive_design', 1998, #120 ) ;
#135 = DIRECTION ( 'NONE',  ( 0.0000000000000000000, 0.0000000000000000000, -1.000000000000000000 ) ) ;
#136 = EDGE_LOOP ( 'NONE', ( #138, #15, #123, #166 ) ) ;
#137 = AXIS2_PLACEMENT_3D ( 'NONE', #117, #58, #180 ) ;
#138 = ORIENTED_EDGE ( 'NONE', *, *, #76, .F. ) ;
#139 = AXIS2_PLACEMENT_3D ( 'NONE', #62, #173, #96 ) ;
#140 = STYLED_ITEM ( 'NONE', ( #78 ), #105 ) ;
#141 = CARTESIAN_POINT ( 'NONE',  ( 122.8099401095107300, 85.22153625845356800, 0.0000000000000000000 ) ) ;
#142 = CARTESIAN_POINT ( 'NONE',  ( 158.9442728140176700, 65.22153625845355400, 0.0000000000000000000 ) ) ;
#143 = CARTESIAN_POINT ( 'NONE',  ( 122.8099401095107300, 65.22153625845356800, 0.0000000000000000000 ) ) ;
#144 = CARTESIAN_POINT ( 'NONE',  ( 158.9442728140176700, 65.22153625845355400, 0.0000000000000000000 ) ) ;
#145 = FILL_AREA_STYLE_COLOUR ( '', #94 ) ;
#146 = CARTESIAN_POINT ( 'NONE',  ( 122.8099401095107300, 45.22153625845356800, -2.449293598294704900E-015 ) ) ;
#147 = LINE ( 'NONE', #122, #64 ) ;
#148 = EDGE_CURVE ( 'NONE', #154, #161, #147, .T. ) ;
#149 = DIRECTION ( 'NONE',  ( 0.0000000000000000000, 0.0000000000000000000, 1.000000000000000000 ) ) ;
#150 = ADVANCED_FACE ( 'NONE', ( #61 ), #28, .T. ) ;
#151 = AXIS2_PLACEMENT_3D ( 'NONE', #144, #131, #133 ) ;
#152 = VERTEX_POINT ( 'NONE', #32 ) ;
#153 = LINE ( 'NONE', #99, #9 ) ;
#154 = VERTEX_POINT ( 'NONE', #56 ) ;
#155 = CARTESIAN_POINT ( 'NONE',  ( 103.2333421658140700, 65.22153625845356800, 0.0000000000000000000 ) ) ;
#156 = STYLED_ITEM ( 'NONE', ( #51 ), #175 ) ;
#157 = ORIENTED_EDGE ( 'NONE', *, *, #73, .T. ) ;
#158 =( GEOMETRIC_REPRESENTATION_CONTEXT ( 3 ) GLOBAL_UNCERTAINTY_ASSIGNED_CONTEXT ( ( #89 ) ) GLOBAL_UNIT_ASSIGNED_CONTEXT ( ( #7, #54, #102 ) ) REPRESENTATION_CONTEXT ( 'NONE', 'WORKASPACE' ) );
#159 = PLANE ( 'NONE',  #108 ) ;
#160 = AXIS2_PLACEMENT_3D ( 'NONE', #174, #29, #53 ) ;
#161 = VERTEX_POINT ( 'NONE', #162 ) ;
#162 = CARTESIAN_POINT ( 'NONE',  ( 115.1442728140176700, 65.22153625845356800, 19.99999999999998900 ) ) ;
#163 = CARTESIAN_POINT ( 'NONE',  ( 117.6442728140176800, 65.22153625845355400, 0.0000000000000000000 ) ) ;
#164 = VERTEX_POINT ( 'NONE', #146 ) ;
#165 =( NAMED_UNIT ( * ) SI_UNIT ( $, .STERADIAN. ) SOLID_ANGLE_UNIT ( ) );
#166 = ORIENTED_EDGE ( 'NONE', *, *, #101, .T. ) ;
#167 = PRODUCT_DEFINITION_FORMATION_WITH_SPECIFIED_SOURCE ( 'ÈÎºÎ', '', #14, .NOT_KNOWN. ) ;
#168 = MECHANICAL_DESIGN_GEOMETRIC_PRESENTATION_REPRESENTATION (  '', ( #140 ), #181 ) ;
#169 = ORIENTED_EDGE ( 'NONE', *, *, #148, .T. ) ;
#170 =( GEOMETRIC_REPRESENTATION_CONTEXT ( 3 ) GLOBAL_UNCERTAINTY_ASSIGNED_CONTEXT ( ( #72 ) ) GLOBAL_UNIT_ASSIGNED_CONTEXT ( ( #179, #23, #46 ) ) REPRESENTATION_CONTEXT ( 'NONE', 'WORKASPACE' ) );
#171 = ORIENTED_EDGE ( 'NONE', *, *, #93, .T. ) ;
#172 = AXIS2_PLACEMENT_3D ( 'NONE', #143, #21, #149 ) ;
#173 = DIRECTION ( 'NONE',  ( -1.000000000000000000, -0.0000000000000000000, -0.0000000000000000000 ) ) ;
#174 = CARTESIAN_POINT ( 'NONE',  ( 115.1442728140176700, 65.22153625845356800, 0.0000000000000000000 ) ) ;
#175 = MANIFOLD_SOLID_BREP ( 'Ðý×ª1', #90 ) ;
#176 = DIRECTION ( 'NONE',  ( 0.0000000000000000000, 1.000000000000000000, 0.0000000000000000000 ) ) ;
#177 = SURFACE_STYLE_FILL_AREA ( #82 ) ;
#178 = SURFACE_STYLE_USAGE ( .BOTH. , #8 ) ;
#179 =( LENGTH_UNIT ( ) NAMED_UNIT ( * ) SI_UNIT ( .MILLI., .METRE. ) );
#180 = DIRECTION ( 'NONE',  ( 0.0000000000000000000, 0.0000000000000000000, 1.000000000000000000 ) ) ;
#181 =( GEOMETRIC_REPRESENTATION_CONTEXT ( 3 ) GLOBAL_UNCERTAINTY_ASSIGNED_CONTEXT ( ( #42 ) ) GLOBAL_UNIT_ASSIGNED_CONTEXT ( ( #100, #83, #165 ) ) REPRESENTATION_CONTEXT ( 'NONE', 'WORKASPACE' ) );
#182 = CYLINDRICAL_SURFACE ( 'NONE', #97, 19.99999999999998900 ) ;
#183 = APPLICATION_PROTOCOL_DEFINITION ( 'draft international standard', 'automotive_design', 1998, #107 ) ;
#184 = ADVANCED_FACE ( 'NONE', ( #25 ), #159, .F. ) ;
#185 = AXIS2_PLACEMENT_3D ( 'NONE', #84, #31, #103 ) ;
#186 = SPHERICAL_SURFACE ( 'NONE', #151, 41.29999999999997600 ) ;
ENDSEC;
END-ISO-10303-21;
