ISO-10303-21;
HEADER;
FILE_DESCRIPTION (( 'STEP AP214' ),
    '1' );
FILE_NAME ('120139.STEP',
    '2019-06-19T08:01:09',
    ( '' ),
    ( '' ),
    'SwSTEP 2.0',
    'SolidWorks 2016',
    '' );
FILE_SCHEMA (( 'AUTOMOTIVE_DESIGN' ));
ENDSEC;

DATA;
#1 = UNCERTAINTY_MEASURE_WITH_UNIT (LENGTH_MEASURE( 1.000000000000000100E-005 ), #155, 'distance_accuracy_value', 'NONE');
#2 =( NAMED_UNIT ( * ) PLANE_ANGLE_UNIT ( ) SI_UNIT ( $, .RADIAN. ) );
#3 = EDGE_CURVE ( 'NONE', #55, #4, #136, .T. ) ;
#4 = VERTEX_POINT ( 'NONE', #135 ) ;
#5 = SHAPE_DEFINITION_REPRESENTATION ( #33, #64 ) ;
#6 = AXIS2_PLACEMENT_3D ( 'NONE', #125, #95, #110 ) ;
#7 = EDGE_LOOP ( 'NONE', ( #159, #28 ) ) ;
#8 = DIRECTION ( 'NONE',  ( 0.0000000000000000000, -1.000000000000000000, 0.0000000000000000000 ) ) ;
#9 = ADVANCED_FACE ( 'NONE', ( #105 ), #160, .T. ) ;
#10 = DIRECTION ( 'NONE',  ( -1.000000000000000000, 3.159171411554934600E-016, -0.0000000000000000000 ) ) ;
#11 = DIRECTION ( 'NONE',  ( -1.000000000000000000, 3.159171411554934600E-016, -0.0000000000000000000 ) ) ;
#12 = DIRECTION ( 'NONE',  ( 0.0000000000000000000, -0.0000000000000000000, -1.000000000000000000 ) ) ;
#13 = CARTESIAN_POINT ( 'NONE',  ( 44.85442262622448300, 26.06225218280608400, 0.0000000000000000000 ) ) ;
#14 = EDGE_CURVE ( 'NONE', #140, #55, #76, .T. ) ;
#15 = SURFACE_SIDE_STYLE ('',( #122 ) ) ;
#16 = ORIENTED_EDGE ( 'NONE', *, *, #83, .F. ) ;
#17 = FILL_AREA_STYLE ('',( #73 ) ) ;
#18 = SPHERICAL_SURFACE ( 'NONE', #134, 10.32999999999999100 ) ;
#19 = EDGE_LOOP ( 'NONE', ( #32, #158, #16, #129 ) ) ;
#20 = CIRCLE ( 'NONE', #162, 8.000000000000000000 ) ;
#21 = AXIS2_PLACEMENT_3D ( 'NONE', #13, #117, #87 ) ;
#22 = DIRECTION ( 'NONE',  ( 0.0000000000000000000, -1.000000000000000000, 0.0000000000000000000 ) ) ;
#23 = SURFACE_STYLE_USAGE ( .BOTH. , #46 ) ;
#24 = AXIS2_PLACEMENT_3D ( 'NONE', #161, #82, #8 ) ;
#25 = EDGE_LOOP ( 'NONE', ( #121, #57, #66, #151 ) ) ;
#26 = DIRECTION ( 'NONE',  ( 1.000000000000000000, -3.159171411554934600E-016, 0.0000000000000000000 ) ) ;
#27 = SURFACE_STYLE_USAGE ( .BOTH. , #15 ) ;
#28 = ORIENTED_EDGE ( 'NONE', *, *, #153, .T. ) ;
#29 = CARTESIAN_POINT ( 'NONE',  ( 0.0000000000000000000, 0.0000000000000000000, 0.0000000000000000000 ) ) ;
#30 = PRESENTATION_STYLE_ASSIGNMENT (( #23 ) ) ;
#31 =( GEOMETRIC_REPRESENTATION_CONTEXT ( 3 ) GLOBAL_UNCERTAINTY_ASSIGNED_CONTEXT ( ( #1 ) ) GLOBAL_UNIT_ASSIGNED_CONTEXT ( ( #155, #101, #138 ) ) REPRESENTATION_CONTEXT ( 'NONE', 'WORKASPACE' ) );
#32 = ORIENTED_EDGE ( 'NONE', *, *, #131, .T. ) ;
#33 = PRODUCT_DEFINITION_SHAPE ( 'NONE', 'NONE',  #139 ) ;
#34 = ADVANCED_FACE ( 'NONE', ( #163 ), #74, .F. ) ;
#35 =( NAMED_UNIT ( * ) SI_UNIT ( $, .STERADIAN. ) SOLID_ANGLE_UNIT ( ) );
#36 = DIRECTION ( 'NONE',  ( 0.0000000000000000000, -1.000000000000000000, 0.0000000000000000000 ) ) ;
#37 = DIRECTION ( 'NONE',  ( -1.000000000000000000, 3.159171411554934600E-016, -0.0000000000000000000 ) ) ;
#38 = DIRECTION ( 'NONE',  ( 0.0000000000000000000, -1.000000000000000000, 0.0000000000000000000 ) ) ;
#39 =( GEOMETRIC_REPRESENTATION_CONTEXT ( 3 ) GLOBAL_UNCERTAINTY_ASSIGNED_CONTEXT ( ( #99 ) ) GLOBAL_UNIT_ASSIGNED_CONTEXT ( ( #56, #48, #35 ) ) REPRESENTATION_CONTEXT ( 'NONE', 'WORKASPACE' ) );
#40 = APPLICATION_CONTEXT ( 'automotive_design' ) ;
#41 = APPLICATION_PROTOCOL_DEFINITION ( 'draft international standard', 'automotive_design', 1998, #40 ) ;
#42 = VERTEX_POINT ( 'NONE', #84 ) ;
#43 = AXIS2_PLACEMENT_3D ( 'NONE', #109, #10, #36 ) ;
#44 = MANIFOLD_SOLID_BREP ( 'Ðý×ª1', #112 ) ;
#45 = CARTESIAN_POINT ( 'NONE',  ( 56.68442262622447500, 26.06225218280608400, 0.0000000000000000000 ) ) ;
#46 = SURFACE_SIDE_STYLE ('',( #90 ) ) ;
#47 = ADVANCED_FACE ( 'NONE', ( #80 ), #85, .T. ) ;
#48 =( NAMED_UNIT ( * ) PLANE_ANGLE_UNIT ( ) SI_UNIT ( $, .RADIAN. ) );
#49 = LINE ( 'NONE', #63, #146 ) ;
#50 = PRODUCT ( '120139', '120139', '', ( #52 ) ) ;
#51 = CARTESIAN_POINT ( 'NONE',  ( 44.85442262622448300, 26.06225218280608400, 0.0000000000000000000 ) ) ;
#52 = PRODUCT_CONTEXT ( 'NONE', #114, 'mechanical' ) ;
#53 = DIRECTION ( 'NONE',  ( 0.0000000000000000000, -1.000000000000000000, 0.0000000000000000000 ) ) ;
#54 = EDGE_LOOP ( 'NONE', ( #143, #104, #132 ) ) ;
#55 = VERTEX_POINT ( 'NONE', #148 ) ;
#56 =( LENGTH_UNIT ( ) NAMED_UNIT ( * ) SI_UNIT ( .MILLI., .METRE. ) );
#57 = ORIENTED_EDGE ( 'NONE', *, *, #14, .T. ) ;
#58 = DIRECTION ( 'NONE',  ( 0.0000000000000000000, -1.000000000000000000, 0.0000000000000000000 ) ) ;
#59 =( NAMED_UNIT ( * ) SI_UNIT ( $, .STERADIAN. ) SOLID_ANGLE_UNIT ( ) );
#60 = DIRECTION ( 'NONE',  ( -1.000000000000000000, 3.159171411554934600E-016, -0.0000000000000000000 ) ) ;
#61 = DIRECTION ( 'NONE',  ( 1.000000000000000000, 0.0000000000000000000, 0.0000000000000000000 ) ) ;
#62 = AXIS2_PLACEMENT_3D ( 'NONE', #97, #11, #22 ) ;
#63 = CARTESIAN_POINT ( 'NONE',  ( 43.01195023616492100, 34.06225218280608400, 9.797174393178827600E-016 ) ) ;
#64 = ADVANCED_BREP_SHAPE_REPRESENTATION ( '120139', ( #44, #116 ), #78 ) ;
#65 = PRODUCT_DEFINITION_CONTEXT ( 'detailed design', #40, 'design' ) ;
#66 = ORIENTED_EDGE ( 'NONE', *, *, #3, .T. ) ;
#67 = CIRCLE ( 'NONE', #144, 10.32999999999999100 ) ;
#68 = MECHANICAL_DESIGN_GEOMETRIC_PRESENTATION_REPRESENTATION (  '', ( #89 ), #39 ) ;
#69 = DIRECTION ( 'NONE',  ( -1.000000000000000000, 3.159171411554934600E-016, -0.0000000000000000000 ) ) ;
#70 = CARTESIAN_POINT ( 'NONE',  ( 56.68442262622447500, 26.06225218280608400, 0.0000000000000000000 ) ) ;
#71 = FACE_OUTER_BOUND ( 'NONE', #124, .T. ) ;
#72 = DIRECTION ( 'NONE',  ( 0.0000000000000000000, -1.000000000000000000, 0.0000000000000000000 ) ) ;
#73 = FILL_AREA_STYLE_COLOUR ( '', #166 ) ;
#74 = SPHERICAL_SURFACE ( 'NONE', #77, 10.32999999999999100 ) ;
#75 = EDGE_CURVE ( 'NONE', #140, #42, #123, .T. ) ;
#76 = CIRCLE ( 'NONE', #43, 8.000000000000003600 ) ;
#77 = AXIS2_PLACEMENT_3D ( 'NONE', #45, #111, #58 ) ;
#78 =( GEOMETRIC_REPRESENTATION_CONTEXT ( 3 ) GLOBAL_UNCERTAINTY_ASSIGNED_CONTEXT ( ( #145 ) ) GLOBAL_UNIT_ASSIGNED_CONTEXT ( ( #100, #2, #59 ) ) REPRESENTATION_CONTEXT ( 'NONE', 'WORKASPACE' ) );
#79 = CIRCLE ( 'NONE', #128, 8.000000000000003600 ) ;
#80 = FACE_OUTER_BOUND ( 'NONE', #19, .T. ) ;
#81 = ORIENTED_EDGE ( 'NONE', *, *, #120, .T. ) ;
#82 = DIRECTION ( 'NONE',  ( -1.000000000000000000, 3.159171411554934600E-016, -0.0000000000000000000 ) ) ;
#83 = EDGE_CURVE ( 'NONE', #4, #150, #20, .T. ) ;
#84 = CARTESIAN_POINT ( 'NONE',  ( 46.35442262622448300, 26.06225218280608800, 0.0000000000000000000 ) ) ;
#85 = CYLINDRICAL_SURFACE ( 'NONE', #24, 8.000000000000000000 ) ;
#86 = CARTESIAN_POINT ( 'NONE',  ( 44.85442262622448300, 26.06225218280608400, 0.0000000000000000000 ) ) ;
#87 = DIRECTION ( 'NONE',  ( 0.0000000000000000000, -1.000000000000000000, 0.0000000000000000000 ) ) ;
#88 = ORIENTED_EDGE ( 'NONE', *, *, #75, .F. ) ;
#89 = STYLED_ITEM ( 'NONE', ( #30 ), #44 ) ;
#90 = SURFACE_STYLE_FILL_AREA ( #133 ) ;
#91 = PRESENTATION_STYLE_ASSIGNMENT (( #27 ) ) ;
#92 = STYLED_ITEM ( 'NONE', ( #91 ), #64 ) ;
#93 = CARTESIAN_POINT ( 'NONE',  ( 43.01195023616492100, 18.06225218280608400, 0.0000000000000000000 ) ) ;
#94 = VECTOR ( 'NONE', #69, 1000.000000000000000 ) ;
#95 = DIRECTION ( 'NONE',  ( -3.868869157118576300E-032, -1.224646799147353200E-016, 1.000000000000000000 ) ) ;
#96 = PRODUCT_DEFINITION_FORMATION_WITH_SPECIFIED_SOURCE ( 'ÈÎºÎ', '', #50, .NOT_KNOWN. ) ;
#97 = CARTESIAN_POINT ( 'NONE',  ( 43.01195023616492100, 26.06225218280608400, 0.0000000000000000000 ) ) ;
#98 = PLANE ( 'NONE',  #108 ) ;
#99 = UNCERTAINTY_MEASURE_WITH_UNIT (LENGTH_MEASURE( 1.000000000000000100E-005 ), #56, 'distance_accuracy_value', 'NONE');
#100 =( LENGTH_UNIT ( ) NAMED_UNIT ( * ) SI_UNIT ( .MILLI., .METRE. ) );
#101 =( NAMED_UNIT ( * ) PLANE_ANGLE_UNIT ( ) SI_UNIT ( $, .RADIAN. ) );
#102 = DIRECTION ( 'NONE',  ( 3.159171411554934600E-016, 1.000000000000000000, 0.0000000000000000000 ) ) ;
#103 = PRESENTATION_LAYER_ASSIGNMENT (  '', '', ( #89 ) ) ;
#104 = ORIENTED_EDGE ( 'NONE', *, *, #75, .T. ) ;
#105 = FACE_OUTER_BOUND ( 'NONE', #25, .T. ) ;
#106 = MECHANICAL_DESIGN_GEOMETRIC_PRESENTATION_REPRESENTATION (  '', ( #92 ), #31 ) ;
#107 = ORIENTED_EDGE ( 'NONE', *, *, #131, .F. ) ;
#108 = AXIS2_PLACEMENT_3D ( 'NONE', #51, #26, #102 ) ;
#109 = CARTESIAN_POINT ( 'NONE',  ( 50.14921796225259200, 26.06225218280608000, 0.0000000000000000000 ) ) ;
#110 = DIRECTION ( 'NONE',  ( 0.0000000000000000000, -1.000000000000000000, -1.224646799147353200E-016 ) ) ;
#111 = DIRECTION ( 'NONE',  ( 0.0000000000000000000, 0.0000000000000000000, 1.000000000000000000 ) ) ;
#112 = CLOSED_SHELL ( 'NONE', ( #47, #34, #147, #9, #126 ) ) ;
#113 = CARTESIAN_POINT ( 'NONE',  ( 50.14921796225259200, 34.06225218280609100, 9.797174393178823700E-016 ) ) ;
#114 = APPLICATION_CONTEXT ( 'automotive_design' ) ;
#115 = DIRECTION ( 'NONE',  ( 0.0000000000000000000, 0.0000000000000000000, 1.000000000000000000 ) ) ;
#116 = AXIS2_PLACEMENT_3D ( 'NONE', #29, #118, #61 ) ;
#117 = DIRECTION ( 'NONE',  ( -1.000000000000000000, 3.159171411554934600E-016, -0.0000000000000000000 ) ) ;
#118 = DIRECTION ( 'NONE',  ( 0.0000000000000000000, 0.0000000000000000000, 1.000000000000000000 ) ) ;
#119 = FACE_OUTER_BOUND ( 'NONE', #7, .T. ) ;
#120 = EDGE_CURVE ( 'NONE', #55, #42, #67, .T. ) ;
#121 = ORIENTED_EDGE ( 'NONE', *, *, #142, .F. ) ;
#122 = SURFACE_STYLE_FILL_AREA ( #17 ) ;
#123 = CIRCLE ( 'NONE', #6, 10.32999999999999100 ) ;
#124 = EDGE_LOOP ( 'NONE', ( #88, #107, #81 ) ) ;
#125 = CARTESIAN_POINT ( 'NONE',  ( 56.68442262622447500, 26.06225218280608400, 0.0000000000000000000 ) ) ;
#126 = ADVANCED_FACE ( 'NONE', ( #119 ), #98, .F. ) ;
#127 = DIRECTION ( 'NONE',  ( -1.000000000000000000, 3.159171411554934600E-016, -0.0000000000000000000 ) ) ;
#128 = AXIS2_PLACEMENT_3D ( 'NONE', #156, #37, #72 ) ;
#129 = ORIENTED_EDGE ( 'NONE', *, *, #3, .F. ) ;
#130 = COLOUR_RGB ( '',1.000000000000000000, 1.000000000000000000, 1.000000000000000000 ) ;
#131 = EDGE_CURVE ( 'NONE', #55, #140, #79, .T. ) ;
#132 = ORIENTED_EDGE ( 'NONE', *, *, #120, .F. ) ;
#133 = FILL_AREA_STYLE ('',( #152 ) ) ;
#134 = AXIS2_PLACEMENT_3D ( 'NONE', #165, #115, #53 ) ;
#135 = CARTESIAN_POINT ( 'NONE',  ( 44.85442262622448300, 18.06225218280608400, 0.0000000000000000000 ) ) ;
#136 = LINE ( 'NONE', #93, #94 ) ;
#137 = CARTESIAN_POINT ( 'NONE',  ( 44.85442262622448300, 34.06225218280608400, 9.797174393178827600E-016 ) ) ;
#138 =( NAMED_UNIT ( * ) SI_UNIT ( $, .STERADIAN. ) SOLID_ANGLE_UNIT ( ) );
#139 = PRODUCT_DEFINITION ( 'Î´Öª', '', #96, #65 ) ;
#140 = VERTEX_POINT ( 'NONE', #113 ) ;
#141 = CIRCLE ( 'NONE', #21, 8.000000000000000000 ) ;
#142 = EDGE_CURVE ( 'NONE', #140, #150, #49, .T. ) ;
#143 = ORIENTED_EDGE ( 'NONE', *, *, #14, .F. ) ;
#144 = AXIS2_PLACEMENT_3D ( 'NONE', #70, #12, #164 ) ;
#145 = UNCERTAINTY_MEASURE_WITH_UNIT (LENGTH_MEASURE( 1.000000000000000100E-005 ), #100, 'distance_accuracy_value', 'NONE');
#146 = VECTOR ( 'NONE', #60, 1000.000000000000000 ) ;
#147 = ADVANCED_FACE ( 'NONE', ( #71 ), #18, .F. ) ;
#148 = CARTESIAN_POINT ( 'NONE',  ( 50.14921796225259200, 18.06225218280608000, 0.0000000000000000000 ) ) ;
#149 = PRODUCT_RELATED_PRODUCT_CATEGORY ( 'part', '', ( #50 ) ) ;
#150 = VERTEX_POINT ( 'NONE', #137 ) ;
#151 = ORIENTED_EDGE ( 'NONE', *, *, #153, .F. ) ;
#152 = FILL_AREA_STYLE_COLOUR ( '', #130 ) ;
#153 = EDGE_CURVE ( 'NONE', #150, #4, #141, .T. ) ;
#154 = APPLICATION_PROTOCOL_DEFINITION ( 'draft international standard', 'automotive_design', 1998, #114 ) ;
#155 =( LENGTH_UNIT ( ) NAMED_UNIT ( * ) SI_UNIT ( .MILLI., .METRE. ) );
#156 = CARTESIAN_POINT ( 'NONE',  ( 50.14921796225259200, 26.06225218280608000, 0.0000000000000000000 ) ) ;
#157 = PRESENTATION_LAYER_ASSIGNMENT (  '', '', ( #92 ) ) ;
#158 = ORIENTED_EDGE ( 'NONE', *, *, #142, .T. ) ;
#159 = ORIENTED_EDGE ( 'NONE', *, *, #83, .T. ) ;
#160 = CYLINDRICAL_SURFACE ( 'NONE', #62, 8.000000000000000000 ) ;
#161 = CARTESIAN_POINT ( 'NONE',  ( 43.01195023616492100, 26.06225218280608400, 0.0000000000000000000 ) ) ;
#162 = AXIS2_PLACEMENT_3D ( 'NONE', #86, #127, #38 ) ;
#163 = FACE_OUTER_BOUND ( 'NONE', #54, .T. ) ;
#164 = DIRECTION ( 'NONE',  ( -1.000000000000000000, 0.0000000000000000000, 0.0000000000000000000 ) ) ;
#165 = CARTESIAN_POINT ( 'NONE',  ( 56.68442262622447500, 26.06225218280608400, 0.0000000000000000000 ) ) ;
#166 = COLOUR_RGB ( '',1.000000000000000000, 1.000000000000000000, 1.000000000000000000 ) ;
ENDSEC;
END-ISO-10303-21;
