ISO-10303-21;
HEADER;
FILE_DESCRIPTION (( 'STEP AP214' ),
    '1' );
FILE_NAME ('120170.STEP',
    '2019-06-21T03:01:04',
    ( '' ),
    ( '' ),
    'SwSTEP 2.0',
    'SolidWorks 2016',
    '' );
FILE_SCHEMA (( 'AUTOMOTIVE_DESIGN' ));
ENDSEC;

DATA;
#1 =( GEOMETRIC_REPRESENTATION_CONTEXT ( 3 ) GLOBAL_UNCERTAINTY_ASSIGNED_CONTEXT ( ( #61 ) ) GLOBAL_UNIT_ASSIGNED_CONTEXT ( ( #59, #147, #60 ) ) REPRESENTATION_CONTEXT ( 'NONE', 'WORKASPACE' ) );
#2 = FACE_OUTER_BOUND ( 'NONE', #132, .T. ) ;
#3 = CARTESIAN_POINT ( 'NONE',  ( 110.0147892488423800, 85.15745182658619700, 2.449293598294706900E-015 ) ) ;
#4 = APPLICATION_CONTEXT ( 'automotive_design' ) ;
#5 = FILL_AREA_STYLE_COLOUR ( '', #29 ) ;
#6 = VERTEX_POINT ( 'NONE', #129 ) ;
#7 = DIRECTION ( 'NONE',  ( 0.0000000000000000000, 0.0000000000000000000, 1.000000000000000000 ) ) ;
#8 = FACE_OUTER_BOUND ( 'NONE', #125, .T. ) ;
#9 = PRODUCT ( '120170', '120170', '', ( #135 ) ) ;
#10 = PRODUCT_RELATED_PRODUCT_CATEGORY ( 'part', '', ( #9 ) ) ;
#11 = ORIENTED_EDGE ( 'NONE', *, *, #112, .T. ) ;
#12 = ORIENTED_EDGE ( 'NONE', *, *, #49, .T. ) ;
#13 = DIRECTION ( 'NONE',  ( -5.374820994505986400E-016, -1.000000000000000000, 0.0000000000000000000 ) ) ;
#14 = DIRECTION ( 'NONE',  ( -6.938893903907227400E-016, -1.000000000000000000, 0.0000000000000000000 ) ) ;
#15 = UNCERTAINTY_MEASURE_WITH_UNIT (LENGTH_MEASURE( 1.000000000000000100E-005 ), #148, 'distance_accuracy_value', 'NONE');
#16 = DIRECTION ( 'NONE',  ( -1.000000000000000000, 6.488933942079480100E-016, -0.0000000000000000000 ) ) ;
#17 = PRESENTATION_LAYER_ASSIGNMENT (  '', '', ( #127 ) ) ;
#18 = SURFACE_SIDE_STYLE ('',( #162 ) ) ;
#19 = ORIENTED_EDGE ( 'NONE', *, *, #49, .F. ) ;
#20 = ADVANCED_FACE ( 'NONE', ( #8 ), #155, .T. ) ;
#21 =( GEOMETRIC_REPRESENTATION_CONTEXT ( 3 ) GLOBAL_UNCERTAINTY_ASSIGNED_CONTEXT ( ( #64 ) ) GLOBAL_UNIT_ASSIGNED_CONTEXT ( ( #84, #33, #48 ) ) REPRESENTATION_CONTEXT ( 'NONE', 'WORKASPACE' ) );
#22 = CIRCLE ( 'NONE', #123, 103.2800000000000000 ) ;
#23 = EDGE_CURVE ( 'NONE', #124, #152, #121, .T. ) ;
#24 = FACE_OUTER_BOUND ( 'NONE', #58, .T. ) ;
#25 = PRODUCT_DEFINITION_SHAPE ( 'NONE', 'NONE',  #151 ) ;
#26 = CARTESIAN_POINT ( 'NONE',  ( 119.4304335666268200, 65.15745182658619700, 0.0000000000000000000 ) ) ;
#27 = AXIS2_PLACEMENT_3D ( 'NONE', #116, #101, #80 ) ;
#28 = CARTESIAN_POINT ( 'NONE',  ( 119.4304335666268300, 85.15745182658622500, 2.449293598294702200E-015 ) ) ;
#29 = COLOUR_RGB ( '',1.000000000000000000, 1.000000000000000000, 1.000000000000000000 ) ;
#30 =( NAMED_UNIT ( * ) PLANE_ANGLE_UNIT ( ) SI_UNIT ( $, .RADIAN. ) );
#31 = ORIENTED_EDGE ( 'NONE', *, *, #62, .T. ) ;
#32 = AXIS2_PLACEMENT_3D ( 'NONE', #78, #115, #14 ) ;
#33 =( NAMED_UNIT ( * ) PLANE_ANGLE_UNIT ( ) SI_UNIT ( $, .RADIAN. ) );
#34 = DIRECTION ( 'NONE',  ( 6.488933942079480100E-016, 1.000000000000000000, 0.0000000000000000000 ) ) ;
#35 = CYLINDRICAL_SURFACE ( 'NONE', #76, 20.00000000000000400 ) ;
#36 = VERTEX_POINT ( 'NONE', #143 ) ;
#37 = ADVANCED_FACE ( 'NONE', ( #94 ), #63, .F. ) ;
#38 = MECHANICAL_DESIGN_GEOMETRIC_PRESENTATION_REPRESENTATION (  '', ( #119 ), #81 ) ;
#39 = LINE ( 'NONE', #3, #149 ) ;
#40 = ORIENTED_EDGE ( 'NONE', *, *, #62, .F. ) ;
#41 = CARTESIAN_POINT ( 'NONE',  ( 220.7554472601862300, 65.15745182658619700, 0.0000000000000000000 ) ) ;
#42 = AXIS2_PLACEMENT_3D ( 'NONE', #74, #46, #34 ) ;
#43 = DIRECTION ( 'NONE',  ( -7.946652182046252500E-032, -1.224646799147353200E-016, 1.000000000000000000 ) ) ;
#44 = DIRECTION ( 'NONE',  ( -1.000000000000000000, 6.488933942079480100E-016, -0.0000000000000000000 ) ) ;
#45 = DIRECTION ( 'NONE',  ( 1.000000000000000000, 0.0000000000000000000, 0.0000000000000000000 ) ) ;
#46 = DIRECTION ( 'NONE',  ( 1.000000000000000000, -6.488933942079480100E-016, 0.0000000000000000000 ) ) ;
#47 = APPLICATION_PROTOCOL_DEFINITION ( 'draft international standard', 'automotive_design', 1998, #4 ) ;
#48 =( NAMED_UNIT ( * ) SI_UNIT ( $, .STERADIAN. ) SOLID_ANGLE_UNIT ( ) );
#49 = EDGE_CURVE ( 'NONE', #6, #133, #159, .T. ) ;
#50 = PRODUCT_DEFINITION_CONTEXT ( 'detailed design', #4, 'design' ) ;
#51 = DIRECTION ( 'NONE',  ( -1.000000000000000000, 6.488933942079480100E-016, -0.0000000000000000000 ) ) ;
#52 = ORIENTED_EDGE ( 'NONE', *, *, #92, .F. ) ;
#53 = DIRECTION ( 'NONE',  ( -6.938893903907227400E-016, -1.000000000000000000, 0.0000000000000000000 ) ) ;
#54 = AXIS2_PLACEMENT_3D ( 'NONE', #134, #7, #95 ) ;
#55 = DIRECTION ( 'NONE',  ( 0.0000000000000000000, -1.000000000000000000, -1.224646799147353200E-016 ) ) ;
#56 = CARTESIAN_POINT ( 'NONE',  ( 119.4304335666268000, 45.15745182658623200, 0.0000000000000000000 ) ) ;
#57 = EDGE_CURVE ( 'NONE', #152, #6, #140, .T. ) ;
#58 = EDGE_LOOP ( 'NONE', ( #97, #98, #128, #77 ) ) ;
#59 =( LENGTH_UNIT ( ) NAMED_UNIT ( * ) SI_UNIT ( .MILLI., .METRE. ) );
#60 =( NAMED_UNIT ( * ) SI_UNIT ( $, .STERADIAN. ) SOLID_ANGLE_UNIT ( ) );
#61 = UNCERTAINTY_MEASURE_WITH_UNIT (LENGTH_MEASURE( 1.000000000000000100E-005 ), #59, 'distance_accuracy_value', 'NONE');
#62 = EDGE_CURVE ( 'NONE', #124, #36, #22, .T. ) ;
#63 = SPHERICAL_SURFACE ( 'NONE', #109, 103.2800000000000000 ) ;
#64 = UNCERTAINTY_MEASURE_WITH_UNIT (LENGTH_MEASURE( 1.000000000000000100E-005 ), #84, 'distance_accuracy_value', 'NONE');
#65 = ORIENTED_EDGE ( 'NONE', *, *, #136, .T. ) ;
#66 = AXIS2_PLACEMENT_3D ( 'NONE', #160, #156, #83 ) ;
#67 = CARTESIAN_POINT ( 'NONE',  ( 110.0147892488423500, 45.15745182658619000, 0.0000000000000000000 ) ) ;
#68 = CLOSED_SHELL ( 'NONE', ( #20, #37, #153, #85, #139 ) ) ;
#69 = DIRECTION ( 'NONE',  ( -1.000000000000000000, 6.488933942079480100E-016, -0.0000000000000000000 ) ) ;
#70 = AXIS2_PLACEMENT_3D ( 'NONE', #106, #150, #72 ) ;
#71 = SURFACE_SIDE_STYLE ('',( #79 ) ) ;
#72 = DIRECTION ( 'NONE',  ( -6.938893903907227400E-016, -1.000000000000000000, 0.0000000000000000000 ) ) ;
#73 = ORIENTED_EDGE ( 'NONE', *, *, #23, .F. ) ;
#74 = CARTESIAN_POINT ( 'NONE',  ( 114.9754472601862300, 65.15745182658619700, 0.0000000000000000000 ) ) ;
#75 = MECHANICAL_DESIGN_GEOMETRIC_PRESENTATION_REPRESENTATION (  '', ( #127 ), #21 ) ;
#76 = AXIS2_PLACEMENT_3D ( 'NONE', #82, #51, #53 ) ;
#77 = ORIENTED_EDGE ( 'NONE', *, *, #136, .F. ) ;
#78 = CARTESIAN_POINT ( 'NONE',  ( 110.0147892488423600, 65.15745182658619700, 0.0000000000000000000 ) ) ;
#79 = SURFACE_STYLE_FILL_AREA ( #158 ) ;
#80 = DIRECTION ( 'NONE',  ( -6.938893903907224400E-016, -1.000000000000000000, 0.0000000000000000000 ) ) ;
#81 =( GEOMETRIC_REPRESENTATION_CONTEXT ( 3 ) GLOBAL_UNCERTAINTY_ASSIGNED_CONTEXT ( ( #15 ) ) GLOBAL_UNIT_ASSIGNED_CONTEXT ( ( #148, #30, #157 ) ) REPRESENTATION_CONTEXT ( 'NONE', 'WORKASPACE' ) );
#82 = CARTESIAN_POINT ( 'NONE',  ( 110.0147892488423600, 65.15745182658619700, 0.0000000000000000000 ) ) ;
#83 = DIRECTION ( 'NONE',  ( -1.000000000000000000, 0.0000000000000000000, 0.0000000000000000000 ) ) ;
#84 =( LENGTH_UNIT ( ) NAMED_UNIT ( * ) SI_UNIT ( .MILLI., .METRE. ) );
#85 = ADVANCED_FACE ( 'NONE', ( #24 ), #35, .T. ) ;
#86 = FACE_OUTER_BOUND ( 'NONE', #144, .T. ) ;
#87 = ORIENTED_EDGE ( 'NONE', *, *, #57, .F. ) ;
#88 = DIRECTION ( 'NONE',  ( 0.0000000000000000000, 0.0000000000000000000, 1.000000000000000000 ) ) ;
#89 = CIRCLE ( 'NONE', #66, 103.2800000000000000 ) ;
#90 = SURFACE_STYLE_USAGE ( .BOTH. , #18 ) ;
#91 = DIRECTION ( 'NONE',  ( 0.0000000000000000000, 0.0000000000000000000, 1.000000000000000000 ) ) ;
#92 = EDGE_CURVE ( 'NONE', #152, #124, #114, .T. ) ;
#93 = PLANE ( 'NONE',  #42 ) ;
#94 = FACE_OUTER_BOUND ( 'NONE', #164, .T. ) ;
#95 = DIRECTION ( 'NONE',  ( -5.374820994505986400E-016, -1.000000000000000000, 0.0000000000000000000 ) ) ;
#96 = CIRCLE ( 'NONE', #70, 20.00000000000000400 ) ;
#97 = ORIENTED_EDGE ( 'NONE', *, *, #99, .F. ) ;
#98 = ORIENTED_EDGE ( 'NONE', *, *, #23, .T. ) ;
#99 = EDGE_CURVE ( 'NONE', #124, #133, #39, .T. ) ;
#100 = CARTESIAN_POINT ( 'NONE',  ( 220.7554472601862300, 65.15745182658619700, 0.0000000000000000000 ) ) ;
#101 = DIRECTION ( 'NONE',  ( -1.000000000000000000, 6.488933942079480100E-016, -0.0000000000000000000 ) ) ;
#102 = VECTOR ( 'NONE', #142, 1000.000000000000000 ) ;
#103 = CARTESIAN_POINT ( 'NONE',  ( 114.9754472601862300, 85.15745182658619700, 2.449293598294707300E-015 ) ) ;
#104 = APPLICATION_CONTEXT ( 'automotive_design' ) ;
#105 = APPLICATION_PROTOCOL_DEFINITION ( 'draft international standard', 'automotive_design', 1998, #104 ) ;
#106 = CARTESIAN_POINT ( 'NONE',  ( 114.9754472601862100, 65.15745182658619700, 0.0000000000000000000 ) ) ;
#107 = AXIS2_PLACEMENT_3D ( 'NONE', #145, #16, #154 ) ;
#108 = ORIENTED_EDGE ( 'NONE', *, *, #92, .T. ) ;
#109 = AXIS2_PLACEMENT_3D ( 'NONE', #100, #88, #13 ) ;
#110 = COLOUR_RGB ( '',1.000000000000000000, 1.000000000000000000, 1.000000000000000000 ) ;
#111 = ORIENTED_EDGE ( 'NONE', *, *, #99, .T. ) ;
#112 = EDGE_CURVE ( 'NONE', #152, #36, #89, .T. ) ;
#113 = PRESENTATION_STYLE_ASSIGNMENT (( #120 ) ) ;
#114 = CIRCLE ( 'NONE', #131, 20.00000000000001100 ) ;
#115 = DIRECTION ( 'NONE',  ( -1.000000000000000000, 6.488933942079480100E-016, -0.0000000000000000000 ) ) ;
#116 = CARTESIAN_POINT ( 'NONE',  ( 119.4304335666268200, 65.15745182658619700, 0.0000000000000000000 ) ) ;
#117 = FILL_AREA_STYLE_COLOUR ( '', #110 ) ;
#118 = CARTESIAN_POINT ( 'NONE',  ( 0.0000000000000000000, 0.0000000000000000000, 0.0000000000000000000 ) ) ;
#119 = STYLED_ITEM ( 'NONE', ( #113 ), #130 ) ;
#120 = SURFACE_STYLE_USAGE ( .BOTH. , #71 ) ;
#121 = CIRCLE ( 'NONE', #27, 20.00000000000001100 ) ;
#122 = FILL_AREA_STYLE ('',( #5 ) ) ;
#123 = AXIS2_PLACEMENT_3D ( 'NONE', #41, #43, #55 ) ;
#124 = VERTEX_POINT ( 'NONE', #28 ) ;
#125 = EDGE_LOOP ( 'NONE', ( #108, #111, #19, #87 ) ) ;
#126 = PRESENTATION_STYLE_ASSIGNMENT (( #90 ) ) ;
#127 = STYLED_ITEM ( 'NONE', ( #126 ), #161 ) ;
#128 = ORIENTED_EDGE ( 'NONE', *, *, #57, .T. ) ;
#129 = CARTESIAN_POINT ( 'NONE',  ( 114.9754472601862000, 45.15745182658619000, 0.0000000000000000000 ) ) ;
#130 = ADVANCED_BREP_SHAPE_REPRESENTATION ( '120170', ( #161, #141 ), #1 ) ;
#131 = AXIS2_PLACEMENT_3D ( 'NONE', #26, #44, #146 ) ;
#132 = EDGE_LOOP ( 'NONE', ( #40, #52, #11 ) ) ;
#133 = VERTEX_POINT ( 'NONE', #103 ) ;
#134 = CARTESIAN_POINT ( 'NONE',  ( 220.7554472601862300, 65.15745182658619700, 0.0000000000000000000 ) ) ;
#135 = PRODUCT_CONTEXT ( 'NONE', #104, 'mechanical' ) ;
#136 = EDGE_CURVE ( 'NONE', #133, #6, #96, .T. ) ;
#137 = ORIENTED_EDGE ( 'NONE', *, *, #112, .F. ) ;
#138 = PRESENTATION_LAYER_ASSIGNMENT (  '', '', ( #119 ) ) ;
#139 = ADVANCED_FACE ( 'NONE', ( #86 ), #93, .F. ) ;
#140 = LINE ( 'NONE', #67, #102 ) ;
#141 = AXIS2_PLACEMENT_3D ( 'NONE', #118, #91, #45 ) ;
#142 = DIRECTION ( 'NONE',  ( -1.000000000000000000, 6.488933942079480100E-016, -0.0000000000000000000 ) ) ;
#143 = CARTESIAN_POINT ( 'NONE',  ( 117.4754472601862300, 65.15745182658625400, 0.0000000000000000000 ) ) ;
#144 = EDGE_LOOP ( 'NONE', ( #12, #65 ) ) ;
#145 = CARTESIAN_POINT ( 'NONE',  ( 114.9754472601862100, 65.15745182658619700, 0.0000000000000000000 ) ) ;
#146 = DIRECTION ( 'NONE',  ( -6.938893903907224400E-016, -1.000000000000000000, 0.0000000000000000000 ) ) ;
#147 =( NAMED_UNIT ( * ) PLANE_ANGLE_UNIT ( ) SI_UNIT ( $, .RADIAN. ) );
#148 =( LENGTH_UNIT ( ) NAMED_UNIT ( * ) SI_UNIT ( .MILLI., .METRE. ) );
#149 = VECTOR ( 'NONE', #69, 1000.000000000000000 ) ;
#150 = DIRECTION ( 'NONE',  ( -1.000000000000000000, 6.488933942079480100E-016, -0.0000000000000000000 ) ) ;
#151 = PRODUCT_DEFINITION ( 'Î´Öª', '', #166, #50 ) ;
#152 = VERTEX_POINT ( 'NONE', #56 ) ;
#153 = ADVANCED_FACE ( 'NONE', ( #2 ), #165, .F. ) ;
#154 = DIRECTION ( 'NONE',  ( -6.938893903907227400E-016, -1.000000000000000000, 0.0000000000000000000 ) ) ;
#155 = CYLINDRICAL_SURFACE ( 'NONE', #32, 20.00000000000000400 ) ;
#156 = DIRECTION ( 'NONE',  ( 0.0000000000000000000, -0.0000000000000000000, -1.000000000000000000 ) ) ;
#157 =( NAMED_UNIT ( * ) SI_UNIT ( $, .STERADIAN. ) SOLID_ANGLE_UNIT ( ) );
#158 = FILL_AREA_STYLE ('',( #117 ) ) ;
#159 = CIRCLE ( 'NONE', #107, 20.00000000000000400 ) ;
#160 = CARTESIAN_POINT ( 'NONE',  ( 220.7554472601862300, 65.15745182658619700, 0.0000000000000000000 ) ) ;
#161 = MANIFOLD_SOLID_BREP ( 'Ðý×ª1', #68 ) ;
#162 = SURFACE_STYLE_FILL_AREA ( #122 ) ;
#163 = SHAPE_DEFINITION_REPRESENTATION ( #25, #130 ) ;
#164 = EDGE_LOOP ( 'NONE', ( #73, #31, #137 ) ) ;
#165 = SPHERICAL_SURFACE ( 'NONE', #54, 103.2800000000000000 ) ;
#166 = PRODUCT_DEFINITION_FORMATION_WITH_SPECIFIED_SOURCE ( 'ÈÎºÎ', '', #9, .NOT_KNOWN. ) ;
ENDSEC;
END-ISO-10303-21;
