ISO-10303-21;
HEADER;
FILE_DESCRIPTION (( 'STEP AP214' ),
    '1' );
FILE_NAME ('120136.STEP',
    '2019-06-19T07:15:18',
    ( '' ),
    ( '' ),
    'SwSTEP 2.0',
    'SolidWorks 2016',
    '' );
FILE_SCHEMA (( 'AUTOMOTIVE_DESIGN' ));
ENDSEC;

DATA;
#1 = PRODUCT_DEFINITION ( 'Î´Öª', '', #71, #132 ) ;
#2 = EDGE_CURVE ( 'NONE', #99, #31, #87, .T. ) ;
#3 = DIRECTION ( 'NONE',  ( -2.685330458168432200E-016, -1.000000000000000000, 0.0000000000000000000 ) ) ;
#4 = CIRCLE ( 'NONE', #81, 25.84000000000000000 ) ;
#5 = CARTESIAN_POINT ( 'NONE',  ( 21.50597511808246100, 8.031126091403040200, 0.0000000000000000000 ) ) ;
#6 = EDGE_CURVE ( 'NONE', #99, #63, #145, .T. ) ;
#7 = FILL_AREA_STYLE_COLOUR ( '', #28 ) ;
#8 = AXIS2_PLACEMENT_3D ( 'NONE', #102, #69, #165 ) ;
#9 =( NAMED_UNIT ( * ) SI_UNIT ( $, .STERADIAN. ) SOLID_ANGLE_UNIT ( ) );
#10 = APPLICATION_CONTEXT ( 'automotive_design' ) ;
#11 =( GEOMETRIC_REPRESENTATION_CONTEXT ( 3 ) GLOBAL_UNCERTAINTY_ASSIGNED_CONTEXT ( ( #41 ) ) GLOBAL_UNIT_ASSIGNED_CONTEXT ( ( #160, #58, #9 ) ) REPRESENTATION_CONTEXT ( 'NONE', 'WORKASPACE' ) );
#12 = AXIS2_PLACEMENT_3D ( 'NONE', #92, #89, #153 ) ;
#13 = ADVANCED_FACE ( 'NONE', ( #53 ), #150, .F. ) ;
#14 = FACE_OUTER_BOUND ( 'NONE', #25, .T. ) ;
#15 = CIRCLE ( 'NONE', #72, 5.000000000000002700 ) ;
#16 = APPLICATION_CONTEXT ( 'automotive_design' ) ;
#17 = CARTESIAN_POINT ( 'NONE',  ( 21.50597511808246100, 13.03112609140304200, 0.0000000000000000000 ) ) ;
#18 = ORIENTED_EDGE ( 'NONE', *, *, #70, .T. ) ;
#19 = LINE ( 'NONE', #5, #54 ) ;
#20 = ORIENTED_EDGE ( 'NONE', *, *, #2, .T. ) ;
#21 = AXIS2_PLACEMENT_3D ( 'NONE', #154, #73, #38 ) ;
#22 = SHAPE_DEFINITION_REPRESENTATION ( #115, #90 ) ;
#23 = ORIENTED_EDGE ( 'NONE', *, *, #62, .T. ) ;
#24 = CYLINDRICAL_SURFACE ( 'NONE', #93, 5.000000000000000900 ) ;
#25 = EDGE_LOOP ( 'NONE', ( #51, #55, #85 ) ) ;
#26 = DIRECTION ( 'NONE',  ( -2.685330458168432200E-016, -1.000000000000000000, 0.0000000000000000000 ) ) ;
#27 = ADVANCED_FACE ( 'NONE', ( #14 ), #149, .F. ) ;
#28 = COLOUR_RGB ( '',1.000000000000000000, 1.000000000000000000, 1.000000000000000000 ) ;
#29 = AXIS2_PLACEMENT_3D ( 'NONE', #123, #136, #3 ) ;
#30 = ORIENTED_EDGE ( 'NONE', *, *, #6, .F. ) ;
#31 = VERTEX_POINT ( 'NONE', #39 ) ;
#32 = APPLICATION_PROTOCOL_DEFINITION ( 'draft international standard', 'automotive_design', 1998, #16 ) ;
#33 = CARTESIAN_POINT ( 'NONE',  ( 24.41259305335086800, 13.03112609140304000, 0.0000000000000000000 ) ) ;
#34 = PRESENTATION_LAYER_ASSIGNMENT (  '', '', ( #104 ) ) ;
#35 = CARTESIAN_POINT ( 'NONE',  ( 49.76423205362065300, 13.03112609140304000, 0.0000000000000000000 ) ) ;
#36 = AXIS2_PLACEMENT_3D ( 'NONE', #44, #128, #75 ) ;
#37 = PRODUCT_RELATED_PRODUCT_CATEGORY ( 'part', '', ( #163 ) ) ;
#38 = DIRECTION ( 'NONE',  ( 0.0000000000000000000, -1.000000000000000000, 0.0000000000000000000 ) ) ;
#39 = CARTESIAN_POINT ( 'NONE',  ( 23.92423205362065600, 13.03112609140304700, 0.0000000000000000000 ) ) ;
#40 = CARTESIAN_POINT ( 'NONE',  ( 21.50597511808246100, 13.03112609140304200, 0.0000000000000000000 ) ) ;
#41 = UNCERTAINTY_MEASURE_WITH_UNIT (LENGTH_MEASURE( 1.000000000000000100E-005 ), #160, 'distance_accuracy_value', 'NONE');
#42 = DIRECTION ( 'NONE',  ( -1.000000000000000000, 3.159171411554934600E-016, -0.0000000000000000000 ) ) ;
#43 =( LENGTH_UNIT ( ) NAMED_UNIT ( * ) SI_UNIT ( .MILLI., .METRE. ) );
#44 = CARTESIAN_POINT ( 'NONE',  ( 24.41259305335086800, 13.03112609140304000, 0.0000000000000000000 ) ) ;
#45 = PLANE ( 'NONE',  #139 ) ;
#46 = CYLINDRICAL_SURFACE ( 'NONE', #48, 5.000000000000000900 ) ;
#47 = MECHANICAL_DESIGN_GEOMETRIC_PRESENTATION_REPRESENTATION (  '', ( #104 ), #84 ) ;
#48 = AXIS2_PLACEMENT_3D ( 'NONE', #40, #66, #91 ) ;
#49 = VERTEX_POINT ( 'NONE', #137 ) ;
#50 = VECTOR ( 'NONE', #125, 1000.000000000000000 ) ;
#51 = ORIENTED_EDGE ( 'NONE', *, *, #2, .F. ) ;
#52 = DIRECTION ( 'NONE',  ( -3.868869157118576300E-032, -1.224646799147353200E-016, 1.000000000000000000 ) ) ;
#53 = FACE_OUTER_BOUND ( 'NONE', #124, .T. ) ;
#54 = VECTOR ( 'NONE', #138, 1000.000000000000000 ) ;
#55 = ORIENTED_EDGE ( 'NONE', *, *, #108, .F. ) ;
#56 = FILL_AREA_STYLE_COLOUR ( '', #151 ) ;
#57 =( NAMED_UNIT ( * ) SI_UNIT ( $, .STERADIAN. ) SOLID_ANGLE_UNIT ( ) );
#58 =( NAMED_UNIT ( * ) PLANE_ANGLE_UNIT ( ) SI_UNIT ( $, .RADIAN. ) );
#59 = DIRECTION ( 'NONE',  ( -1.000000000000000000, 0.0000000000000000000, 0.0000000000000000000 ) ) ;
#60 = EDGE_LOOP ( 'NONE', ( #82, #122, #158, #113 ) ) ;
#61 = EDGE_LOOP ( 'NONE', ( #23, #18 ) ) ;
#62 = EDGE_CURVE ( 'NONE', #49, #63, #94, .T. ) ;
#63 = VERTEX_POINT ( 'NONE', #105 ) ;
#64 = CARTESIAN_POINT ( 'NONE',  ( 24.41259305335086800, 18.03112609140304600, 6.123233995736760400E-016 ) ) ;
#65 = CARTESIAN_POINT ( 'NONE',  ( 49.76423205362065300, 13.03112609140304000, 0.0000000000000000000 ) ) ;
#66 = DIRECTION ( 'NONE',  ( -1.000000000000000000, 3.159171411554934600E-016, -0.0000000000000000000 ) ) ;
#67 = EDGE_CURVE ( 'NONE', #156, #49, #19, .T. ) ;
#68 =( NAMED_UNIT ( * ) PLANE_ANGLE_UNIT ( ) SI_UNIT ( $, .RADIAN. ) );
#69 = DIRECTION ( 'NONE',  ( 0.0000000000000000000, 0.0000000000000000000, 1.000000000000000000 ) ) ;
#70 = EDGE_CURVE ( 'NONE', #63, #49, #74, .T. ) ;
#71 = PRODUCT_DEFINITION_FORMATION_WITH_SPECIFIED_SOURCE ( 'ÈÎºÎ', '', #163, .NOT_KNOWN. ) ;
#72 = AXIS2_PLACEMENT_3D ( 'NONE', #33, #42, #97 ) ;
#73 = DIRECTION ( 'NONE',  ( -1.000000000000000000, 3.159171411554934600E-016, -0.0000000000000000000 ) ) ;
#74 = CIRCLE ( 'NONE', #21, 5.000000000000000900 ) ;
#75 = DIRECTION ( 'NONE',  ( 0.0000000000000000000, -1.000000000000000000, 0.0000000000000000000 ) ) ;
#76 = ADVANCED_FACE ( 'NONE', ( #83 ), #46, .T. ) ;
#77 =( NAMED_UNIT ( * ) SI_UNIT ( $, .STERADIAN. ) SOLID_ANGLE_UNIT ( ) );
#78 = STYLED_ITEM ( 'NONE', ( #140 ), #146 ) ;
#79 = SURFACE_STYLE_USAGE ( .BOTH. , #161 ) ;
#80 = ORIENTED_EDGE ( 'NONE', *, *, #103, .F. ) ;
#81 = AXIS2_PLACEMENT_3D ( 'NONE', #35, #130, #59 ) ;
#82 = ORIENTED_EDGE ( 'NONE', *, *, #108, .T. ) ;
#83 = FACE_OUTER_BOUND ( 'NONE', #109, .T. ) ;
#84 =( GEOMETRIC_REPRESENTATION_CONTEXT ( 3 ) GLOBAL_UNCERTAINTY_ASSIGNED_CONTEXT ( ( #133 ) ) GLOBAL_UNIT_ASSIGNED_CONTEXT ( ( #43, #127, #57 ) ) REPRESENTATION_CONTEXT ( 'NONE', 'WORKASPACE' ) );
#85 = ORIENTED_EDGE ( 'NONE', *, *, #155, .T. ) ;
#86 = PRESENTATION_STYLE_ASSIGNMENT (( #159 ) ) ;
#87 = CIRCLE ( 'NONE', #121, 25.84000000000000000 ) ;
#88 = CLOSED_SHELL ( 'NONE', ( #111, #13, #27, #76, #117 ) ) ;
#89 = DIRECTION ( 'NONE',  ( -1.000000000000000000, 3.159171411554934600E-016, -0.0000000000000000000 ) ) ;
#90 = ADVANCED_BREP_SHAPE_REPRESENTATION ( '120136', ( #146, #8 ), #142 ) ;
#91 = DIRECTION ( 'NONE',  ( 0.0000000000000000000, -1.000000000000000000, 0.0000000000000000000 ) ) ;
#92 = CARTESIAN_POINT ( 'NONE',  ( 22.42423205362066000, 13.03112609140304200, 0.0000000000000000000 ) ) ;
#93 = AXIS2_PLACEMENT_3D ( 'NONE', #17, #101, #116 ) ;
#94 = CIRCLE ( 'NONE', #12, 5.000000000000000900 ) ;
#95 = ORIENTED_EDGE ( 'NONE', *, *, #67, .T. ) ;
#96 = CARTESIAN_POINT ( 'NONE',  ( 22.42423205362066000, 13.03112609140304200, 0.0000000000000000000 ) ) ;
#97 = DIRECTION ( 'NONE',  ( 0.0000000000000000000, -1.000000000000000000, 0.0000000000000000000 ) ) ;
#98 = DIRECTION ( 'NONE',  ( 3.159171411554934600E-016, 1.000000000000000000, 0.0000000000000000000 ) ) ;
#99 = VERTEX_POINT ( 'NONE', #64 ) ;
#100 = DIRECTION ( 'NONE',  ( 0.0000000000000000000, -1.000000000000000000, -1.224646799147353200E-016 ) ) ;
#101 = DIRECTION ( 'NONE',  ( -1.000000000000000000, 3.159171411554934600E-016, -0.0000000000000000000 ) ) ;
#102 = CARTESIAN_POINT ( 'NONE',  ( 0.0000000000000000000, 0.0000000000000000000, 0.0000000000000000000 ) ) ;
#103 = EDGE_CURVE ( 'NONE', #99, #156, #110, .T. ) ;
#104 = STYLED_ITEM ( 'NONE', ( #86 ), #90 ) ;
#105 = CARTESIAN_POINT ( 'NONE',  ( 22.42423205362066000, 18.03112609140304200, 6.123233995736768300E-016 ) ) ;
#106 = FACE_OUTER_BOUND ( 'NONE', #60, .T. ) ;
#107 = DIRECTION ( 'NONE',  ( 0.0000000000000000000, 0.0000000000000000000, 1.000000000000000000 ) ) ;
#108 = EDGE_CURVE ( 'NONE', #156, #99, #15, .T. ) ;
#109 = EDGE_LOOP ( 'NONE', ( #30, #166, #95, #152 ) ) ;
#110 = CIRCLE ( 'NONE', #36, 5.000000000000002700 ) ;
#111 = ADVANCED_FACE ( 'NONE', ( #106 ), #24, .T. ) ;
#112 = FILL_AREA_STYLE ('',( #7 ) ) ;
#113 = ORIENTED_EDGE ( 'NONE', *, *, #67, .F. ) ;
#114 = UNCERTAINTY_MEASURE_WITH_UNIT (LENGTH_MEASURE( 1.000000000000000100E-005 ), #162, 'distance_accuracy_value', 'NONE');
#115 = PRODUCT_DEFINITION_SHAPE ( 'NONE', 'NONE',  #1 ) ;
#116 = DIRECTION ( 'NONE',  ( 0.0000000000000000000, -1.000000000000000000, 0.0000000000000000000 ) ) ;
#117 = ADVANCED_FACE ( 'NONE', ( #157 ), #45, .F. ) ;
#118 = SURFACE_STYLE_FILL_AREA ( #112 ) ;
#119 = SURFACE_STYLE_FILL_AREA ( #141 ) ;
#120 = ORIENTED_EDGE ( 'NONE', *, *, #155, .F. ) ;
#121 = AXIS2_PLACEMENT_3D ( 'NONE', #135, #52, #100 ) ;
#122 = ORIENTED_EDGE ( 'NONE', *, *, #6, .T. ) ;
#123 = CARTESIAN_POINT ( 'NONE',  ( 49.76423205362065300, 13.03112609140304000, 0.0000000000000000000 ) ) ;
#124 = EDGE_LOOP ( 'NONE', ( #80, #20, #120 ) ) ;
#125 = DIRECTION ( 'NONE',  ( -1.000000000000000000, 3.159171411554934600E-016, -0.0000000000000000000 ) ) ;
#126 = SURFACE_SIDE_STYLE ('',( #118 ) ) ;
#127 =( NAMED_UNIT ( * ) PLANE_ANGLE_UNIT ( ) SI_UNIT ( $, .RADIAN. ) );
#128 = DIRECTION ( 'NONE',  ( -1.000000000000000000, 3.159171411554934600E-016, -0.0000000000000000000 ) ) ;
#129 = DIRECTION ( 'NONE',  ( 1.000000000000000000, -3.159171411554934600E-016, 0.0000000000000000000 ) ) ;
#130 = DIRECTION ( 'NONE',  ( 0.0000000000000000000, -0.0000000000000000000, -1.000000000000000000 ) ) ;
#131 = AXIS2_PLACEMENT_3D ( 'NONE', #65, #107, #26 ) ;
#132 = PRODUCT_DEFINITION_CONTEXT ( 'detailed design', #10, 'design' ) ;
#133 = UNCERTAINTY_MEASURE_WITH_UNIT (LENGTH_MEASURE( 1.000000000000000100E-005 ), #43, 'distance_accuracy_value', 'NONE');
#134 = APPLICATION_PROTOCOL_DEFINITION ( 'draft international standard', 'automotive_design', 1998, #10 ) ;
#135 = CARTESIAN_POINT ( 'NONE',  ( 49.76423205362065300, 13.03112609140304000, 0.0000000000000000000 ) ) ;
#136 = DIRECTION ( 'NONE',  ( 0.0000000000000000000, 0.0000000000000000000, 1.000000000000000000 ) ) ;
#137 = CARTESIAN_POINT ( 'NONE',  ( 22.42423205362066000, 8.031126091403040200, 0.0000000000000000000 ) ) ;
#138 = DIRECTION ( 'NONE',  ( -1.000000000000000000, 3.159171411554934600E-016, -0.0000000000000000000 ) ) ;
#139 = AXIS2_PLACEMENT_3D ( 'NONE', #96, #129, #98 ) ;
#140 = PRESENTATION_STYLE_ASSIGNMENT (( #79 ) ) ;
#141 = FILL_AREA_STYLE ('',( #56 ) ) ;
#142 =( GEOMETRIC_REPRESENTATION_CONTEXT ( 3 ) GLOBAL_UNCERTAINTY_ASSIGNED_CONTEXT ( ( #114 ) ) GLOBAL_UNIT_ASSIGNED_CONTEXT ( ( #162, #68, #77 ) ) REPRESENTATION_CONTEXT ( 'NONE', 'WORKASPACE' ) );
#143 = CARTESIAN_POINT ( 'NONE',  ( 24.41259305335086800, 8.031126091403043800, 0.0000000000000000000 ) ) ;
#144 = PRODUCT_CONTEXT ( 'NONE', #16, 'mechanical' ) ;
#145 = LINE ( 'NONE', #147, #50 ) ;
#146 = MANIFOLD_SOLID_BREP ( 'Ðý×ª1', #88 ) ;
#147 = CARTESIAN_POINT ( 'NONE',  ( 21.50597511808246100, 18.03112609140304200, 6.123233995736768300E-016 ) ) ;
#148 = PRESENTATION_LAYER_ASSIGNMENT (  '', '', ( #78 ) ) ;
#149 = SPHERICAL_SURFACE ( 'NONE', #29, 25.84000000000000000 ) ;
#150 = SPHERICAL_SURFACE ( 'NONE', #131, 25.84000000000000000 ) ;
#151 = COLOUR_RGB ( '',1.000000000000000000, 1.000000000000000000, 1.000000000000000000 ) ;
#152 = ORIENTED_EDGE ( 'NONE', *, *, #70, .F. ) ;
#153 = DIRECTION ( 'NONE',  ( 0.0000000000000000000, -1.000000000000000000, 0.0000000000000000000 ) ) ;
#154 = CARTESIAN_POINT ( 'NONE',  ( 22.42423205362066000, 13.03112609140304200, 0.0000000000000000000 ) ) ;
#155 = EDGE_CURVE ( 'NONE', #156, #31, #4, .T. ) ;
#156 = VERTEX_POINT ( 'NONE', #143 ) ;
#157 = FACE_OUTER_BOUND ( 'NONE', #61, .T. ) ;
#158 = ORIENTED_EDGE ( 'NONE', *, *, #62, .F. ) ;
#159 = SURFACE_STYLE_USAGE ( .BOTH. , #126 ) ;
#160 =( LENGTH_UNIT ( ) NAMED_UNIT ( * ) SI_UNIT ( .MILLI., .METRE. ) );
#161 = SURFACE_SIDE_STYLE ('',( #119 ) ) ;
#162 =( LENGTH_UNIT ( ) NAMED_UNIT ( * ) SI_UNIT ( .MILLI., .METRE. ) );
#163 = PRODUCT ( '120136', '120136', '', ( #144 ) ) ;
#164 = MECHANICAL_DESIGN_GEOMETRIC_PRESENTATION_REPRESENTATION (  '', ( #78 ), #11 ) ;
#165 = DIRECTION ( 'NONE',  ( 1.000000000000000000, 0.0000000000000000000, 0.0000000000000000000 ) ) ;
#166 = ORIENTED_EDGE ( 'NONE', *, *, #103, .T. ) ;
ENDSEC;
END-ISO-10303-21;
