ISO-10303-21;
HEADER;
FILE_DESCRIPTION (( 'STEP AP214' ),
    '1' );
FILE_NAME ('120143.STEP',
    '2019-06-20T01:24:10',
    ( '' ),
    ( '' ),
    'SwSTEP 2.0',
    'SolidWorks 2016',
    '' );
FILE_SCHEMA (( 'AUTOMOTIVE_DESIGN' ));
ENDSEC;

DATA;
#1 = DIRECTION ( 'NONE',  ( 0.0000000000000000000, -0.0000000000000000000, -1.000000000000000000 ) ) ;
#2 = LINE ( 'NONE', #150, #134 ) ;
#3 = DIRECTION ( 'NONE',  ( 0.0000000000000000000, 0.0000000000000000000, 1.000000000000000000 ) ) ;
#4 = SURFACE_SIDE_STYLE ('',( #65 ) ) ;
#5 = EDGE_CURVE ( 'NONE', #9, #147, #80, .T. ) ;
#6 = CARTESIAN_POINT ( 'NONE',  ( 44.85442262622448300, 26.06225218280608400, 0.0000000000000000000 ) ) ;
#7 = FACE_OUTER_BOUND ( 'NONE', #95, .T. ) ;
#8 = PRODUCT_DEFINITION ( 'Î´Öª', '', #85, #35 ) ;
#9 = VERTEX_POINT ( 'NONE', #106 ) ;
#10 = ORIENTED_EDGE ( 'NONE', *, *, #145, .T. ) ;
#11 = PRODUCT ( '120143', '120143', '', ( #122 ) ) ;
#12 = DIRECTION ( 'NONE',  ( 0.0000000000000000000, -1.000000000000000000, 0.0000000000000000000 ) ) ;
#13 = APPLICATION_PROTOCOL_DEFINITION ( 'draft international standard', 'automotive_design', 1998, #91 ) ;
#14 = DIRECTION ( 'NONE',  ( -1.000000000000000000, 4.058245434298766700E-016, -0.0000000000000000000 ) ) ;
#15 = CYLINDRICAL_SURFACE ( 'NONE', #83, 8.000000000000000000 ) ;
#16 = ORIENTED_EDGE ( 'NONE', *, *, #81, .F. ) ;
#17 = ORIENTED_EDGE ( 'NONE', *, *, #140, .F. ) ;
#18 = ADVANCED_FACE ( 'NONE', ( #27 ), #60, .T. ) ;
#19 = FACE_OUTER_BOUND ( 'NONE', #141, .T. ) ;
#20 = AXIS2_PLACEMENT_3D ( 'NONE', #69, #164, #12 ) ;
#21 = ORIENTED_EDGE ( 'NONE', *, *, #5, .T. ) ;
#22 = CARTESIAN_POINT ( 'NONE',  ( 43.01195023616492100, 26.06225218280608400, 0.0000000000000000000 ) ) ;
#23 = EDGE_CURVE ( 'NONE', #155, #9, #55, .T. ) ;
#24 = CIRCLE ( 'NONE', #64, 25.84000000000001100 ) ;
#25 = CARTESIAN_POINT ( 'NONE',  ( 72.19442262622449400, 26.06225218280608400, 0.0000000000000000000 ) ) ;
#26 = COLOUR_RGB ( '',1.000000000000000000, 1.000000000000000000, 1.000000000000000000 ) ;
#27 = FACE_OUTER_BOUND ( 'NONE', #163, .T. ) ;
#28 = VERTEX_POINT ( 'NONE', #153 ) ;
#29 = PRESENTATION_LAYER_ASSIGNMENT (  '', '', ( #32 ) ) ;
#30 = DIRECTION ( 'NONE',  ( 0.0000000000000000000, -1.000000000000000000, 0.0000000000000000000 ) ) ;
#31 = DIRECTION ( 'NONE',  ( 0.0000000000000000000, -1.000000000000000000, 0.0000000000000000000 ) ) ;
#32 = STYLED_ITEM ( 'NONE', ( #158 ), #61 ) ;
#33 = DIRECTION ( 'NONE',  ( -1.000000000000000000, 4.058245434298766700E-016, -0.0000000000000000000 ) ) ;
#34 = MECHANICAL_DESIGN_GEOMETRIC_PRESENTATION_REPRESENTATION (  '', ( #87 ), #66 ) ;
#35 = PRODUCT_DEFINITION_CONTEXT ( 'detailed design', #91, 'design' ) ;
#36 = ORIENTED_EDGE ( 'NONE', *, *, #140, .T. ) ;
#37 = ORIENTED_EDGE ( 'NONE', *, *, #23, .F. ) ;
#38 = PRESENTATION_STYLE_ASSIGNMENT (( #88 ) ) ;
#39 = EDGE_CURVE ( 'NONE', #109, #28, #129, .T. ) ;
#40 = DIRECTION ( 'NONE',  ( -1.000000000000000000, 4.058245434298766700E-016, -0.0000000000000000000 ) ) ;
#41 = UNCERTAINTY_MEASURE_WITH_UNIT (LENGTH_MEASURE( 1.000000000000000100E-005 ), #104, 'distance_accuracy_value', 'NONE');
#42 = CARTESIAN_POINT ( 'NONE',  ( 0.0000000000000000000, 0.0000000000000000000, 0.0000000000000000000 ) ) ;
#43 = CARTESIAN_POINT ( 'NONE',  ( 72.19442262622449400, 26.06225218280608400, 0.0000000000000000000 ) ) ;
#44 = ORIENTED_EDGE ( 'NONE', *, *, #145, .F. ) ;
#45 = CARTESIAN_POINT ( 'NONE',  ( 47.62400138441425000, 26.06225218280608000, 0.0000000000000000000 ) ) ;
#46 = SURFACE_SIDE_STYLE ('',( #82 ) ) ;
#47 = MECHANICAL_DESIGN_GEOMETRIC_PRESENTATION_REPRESENTATION (  '', ( #32 ), #57 ) ;
#48 = CARTESIAN_POINT ( 'NONE',  ( 72.19442262622449400, 26.06225218280608400, 0.0000000000000000000 ) ) ;
#49 = PRODUCT_DEFINITION_SHAPE ( 'NONE', 'NONE',  #8 ) ;
#50 = FACE_OUTER_BOUND ( 'NONE', #146, .T. ) ;
#51 = ORIENTED_EDGE ( 'NONE', *, *, #23, .T. ) ;
#52 = ORIENTED_EDGE ( 'NONE', *, *, #39, .T. ) ;
#53 = EDGE_CURVE ( 'NONE', #9, #155, #132, .T. ) ;
#54 = DIRECTION ( 'NONE',  ( 1.000000000000000000, -4.058245434298766700E-016, 0.0000000000000000000 ) ) ;
#55 = CIRCLE ( 'NONE', #20, 8.000000000000003600 ) ;
#56 = CARTESIAN_POINT ( 'NONE',  ( 44.85442262622448300, 26.06225218280608400, 0.0000000000000000000 ) ) ;
#57 =( GEOMETRIC_REPRESENTATION_CONTEXT ( 3 ) GLOBAL_UNCERTAINTY_ASSIGNED_CONTEXT ( ( #143 ) ) GLOBAL_UNIT_ASSIGNED_CONTEXT ( ( #142, #130, #165 ) ) REPRESENTATION_CONTEXT ( 'NONE', 'WORKASPACE' ) );
#58 = DIRECTION ( 'NONE',  ( 0.0000000000000000000, -1.000000000000000000, 0.0000000000000000000 ) ) ;
#59 = ORIENTED_EDGE ( 'NONE', *, *, #39, .F. ) ;
#60 = CYLINDRICAL_SURFACE ( 'NONE', #118, 8.000000000000000000 ) ;
#61 = MANIFOLD_SOLID_BREP ( 'Ðý×ª1', #131 ) ;
#62 = CIRCLE ( 'NONE', #105, 8.000000000000000000 ) ;
#63 = DIRECTION ( 'NONE',  ( -1.000000000000000000, 0.0000000000000000000, 0.0000000000000000000 ) ) ;
#64 = AXIS2_PLACEMENT_3D ( 'NONE', #48, #1, #63 ) ;
#65 = SURFACE_STYLE_FILL_AREA ( #70 ) ;
#66 =( GEOMETRIC_REPRESENTATION_CONTEXT ( 3 ) GLOBAL_UNCERTAINTY_ASSIGNED_CONTEXT ( ( #41 ) ) GLOBAL_UNIT_ASSIGNED_CONTEXT ( ( #104, #107, #136 ) ) REPRESENTATION_CONTEXT ( 'NONE', 'WORKASPACE' ) );
#67 = EDGE_LOOP ( 'NONE', ( #72, #21, #16 ) ) ;
#68 = AXIS2_PLACEMENT_3D ( 'NONE', #161, #14, #93 ) ;
#69 = CARTESIAN_POINT ( 'NONE',  ( 47.62400138441425000, 26.06225218280608000, 0.0000000000000000000 ) ) ;
#70 = FILL_AREA_STYLE ('',( #138 ) ) ;
#71 = UNCERTAINTY_MEASURE_WITH_UNIT (LENGTH_MEASURE( 1.000000000000000100E-005 ), #125, 'distance_accuracy_value', 'NONE');
#72 = ORIENTED_EDGE ( 'NONE', *, *, #53, .F. ) ;
#73 = AXIS2_PLACEMENT_3D ( 'NONE', #45, #139, #112 ) ;
#74 = AXIS2_PLACEMENT_3D ( 'NONE', #90, #3, #113 ) ;
#75 = FILL_AREA_STYLE_COLOUR ( '', #26 ) ;
#76 = AXIS2_PLACEMENT_3D ( 'NONE', #56, #54, #151 ) ;
#77 = FILL_AREA_STYLE ('',( #75 ) ) ;
#78 = SPHERICAL_SURFACE ( 'NONE', #74, 25.84000000000001100 ) ;
#79 = ADVANCED_FACE ( 'NONE', ( #7 ), #78, .F. ) ;
#80 = CIRCLE ( 'NONE', #92, 25.84000000000001100 ) ;
#81 = EDGE_CURVE ( 'NONE', #155, #147, #24, .T. ) ;
#82 = SURFACE_STYLE_FILL_AREA ( #77 ) ;
#83 = AXIS2_PLACEMENT_3D ( 'NONE', #22, #159, #31 ) ;
#84 = SHAPE_DEFINITION_REPRESENTATION ( #49, #94 ) ;
#85 = PRODUCT_DEFINITION_FORMATION_WITH_SPECIFIED_SOURCE ( 'ÈÎºÎ', '', #11, .NOT_KNOWN. ) ;
#86 = VECTOR ( 'NONE', #40, 1000.000000000000000 ) ;
#87 = STYLED_ITEM ( 'NONE', ( #38 ), #94 ) ;
#88 = SURFACE_STYLE_USAGE ( .BOTH. , #46 ) ;
#89 = APPLICATION_CONTEXT ( 'automotive_design' ) ;
#90 = CARTESIAN_POINT ( 'NONE',  ( 72.19442262622449400, 26.06225218280608400, 0.0000000000000000000 ) ) ;
#91 = APPLICATION_CONTEXT ( 'automotive_design' ) ;
#92 = AXIS2_PLACEMENT_3D ( 'NONE', #43, #127, #162 ) ;
#93 = DIRECTION ( 'NONE',  ( 0.0000000000000000000, -1.000000000000000000, 0.0000000000000000000 ) ) ;
#94 = ADVANCED_BREP_SHAPE_REPRESENTATION ( '120143', ( #61, #126 ), #148 ) ;
#95 = EDGE_LOOP ( 'NONE', ( #166, #37, #102 ) ) ;
#96 = SURFACE_STYLE_USAGE ( .BOTH. , #4 ) ;
#97 = ADVANCED_FACE ( 'NONE', ( #114 ), #160, .F. ) ;
#98 = PRODUCT_RELATED_PRODUCT_CATEGORY ( 'part', '', ( #11 ) ) ;
#99 = ADVANCED_FACE ( 'NONE', ( #19 ), #101, .F. ) ;
#100 = DIRECTION ( 'NONE',  ( -1.000000000000000000, 4.058245434298766700E-016, -0.0000000000000000000 ) ) ;
#101 = PLANE ( 'NONE',  #76 ) ;
#102 = ORIENTED_EDGE ( 'NONE', *, *, #81, .T. ) ;
#103 = CARTESIAN_POINT ( 'NONE',  ( 44.85442262622448300, 34.06225218280608400, 9.797174393178827600E-016 ) ) ;
#104 =( LENGTH_UNIT ( ) NAMED_UNIT ( * ) SI_UNIT ( .MILLI., .METRE. ) );
#105 = AXIS2_PLACEMENT_3D ( 'NONE', #6, #100, #30 ) ;
#106 = CARTESIAN_POINT ( 'NONE',  ( 47.62400138441425000, 34.06225218280609100, 9.797174393178823700E-016 ) ) ;
#107 =( NAMED_UNIT ( * ) PLANE_ANGLE_UNIT ( ) SI_UNIT ( $, .RADIAN. ) );
#108 = APPLICATION_PROTOCOL_DEFINITION ( 'draft international standard', 'automotive_design', 1998, #89 ) ;
#109 = VERTEX_POINT ( 'NONE', #103 ) ;
#110 = DIRECTION ( 'NONE',  ( 0.0000000000000000000, 0.0000000000000000000, 1.000000000000000000 ) ) ;
#111 = DIRECTION ( 'NONE',  ( -5.370660916336862500E-016, -1.000000000000000000, 0.0000000000000000000 ) ) ;
#112 = DIRECTION ( 'NONE',  ( 0.0000000000000000000, -1.000000000000000000, 0.0000000000000000000 ) ) ;
#113 = DIRECTION ( 'NONE',  ( -5.370660916336862500E-016, -1.000000000000000000, 0.0000000000000000000 ) ) ;
#114 = FACE_OUTER_BOUND ( 'NONE', #67, .T. ) ;
#115 = ADVANCED_FACE ( 'NONE', ( #50 ), #15, .T. ) ;
#116 = AXIS2_PLACEMENT_3D ( 'NONE', #25, #110, #111 ) ;
#117 = ORIENTED_EDGE ( 'NONE', *, *, #53, .T. ) ;
#118 = AXIS2_PLACEMENT_3D ( 'NONE', #128, #33, #58 ) ;
#119 = ORIENTED_EDGE ( 'NONE', *, *, #137, .F. ) ;
#120 = ORIENTED_EDGE ( 'NONE', *, *, #137, .T. ) ;
#121 = CARTESIAN_POINT ( 'NONE',  ( 43.01195023616492100, 18.06225218280608400, 0.0000000000000000000 ) ) ;
#122 = PRODUCT_CONTEXT ( 'NONE', #89, 'mechanical' ) ;
#123 = DIRECTION ( 'NONE',  ( 0.0000000000000000000, 0.0000000000000000000, 1.000000000000000000 ) ) ;
#124 = COLOUR_RGB ( '',1.000000000000000000, 1.000000000000000000, 1.000000000000000000 ) ;
#125 =( LENGTH_UNIT ( ) NAMED_UNIT ( * ) SI_UNIT ( .MILLI., .METRE. ) );
#126 = AXIS2_PLACEMENT_3D ( 'NONE', #42, #123, #152 ) ;
#127 = DIRECTION ( 'NONE',  ( -4.969917281268344600E-032, -1.224646799147353200E-016, 1.000000000000000000 ) ) ;
#128 = CARTESIAN_POINT ( 'NONE',  ( 43.01195023616492100, 26.06225218280608400, 0.0000000000000000000 ) ) ;
#129 = CIRCLE ( 'NONE', #68, 8.000000000000000000 ) ;
#130 =( NAMED_UNIT ( * ) PLANE_ANGLE_UNIT ( ) SI_UNIT ( $, .RADIAN. ) );
#131 = CLOSED_SHELL ( 'NONE', ( #115, #97, #79, #18, #99 ) ) ;
#132 = CIRCLE ( 'NONE', #73, 8.000000000000003600 ) ;
#133 = DIRECTION ( 'NONE',  ( -1.000000000000000000, 4.058245434298766700E-016, -0.0000000000000000000 ) ) ;
#134 = VECTOR ( 'NONE', #133, 1000.000000000000000 ) ;
#135 =( NAMED_UNIT ( * ) PLANE_ANGLE_UNIT ( ) SI_UNIT ( $, .RADIAN. ) );
#136 =( NAMED_UNIT ( * ) SI_UNIT ( $, .STERADIAN. ) SOLID_ANGLE_UNIT ( ) );
#137 = EDGE_CURVE ( 'NONE', #155, #28, #144, .T. ) ;
#138 = FILL_AREA_STYLE_COLOUR ( '', #124 ) ;
#139 = DIRECTION ( 'NONE',  ( -1.000000000000000000, 4.058245434298766700E-016, -0.0000000000000000000 ) ) ;
#140 = EDGE_CURVE ( 'NONE', #9, #109, #2, .T. ) ;
#141 = EDGE_LOOP ( 'NONE', ( #10, #52 ) ) ;
#142 =( LENGTH_UNIT ( ) NAMED_UNIT ( * ) SI_UNIT ( .MILLI., .METRE. ) );
#143 = UNCERTAINTY_MEASURE_WITH_UNIT (LENGTH_MEASURE( 1.000000000000000100E-005 ), #142, 'distance_accuracy_value', 'NONE');
#144 = LINE ( 'NONE', #121, #86 ) ;
#145 = EDGE_CURVE ( 'NONE', #28, #109, #62, .T. ) ;
#146 = EDGE_LOOP ( 'NONE', ( #51, #36, #44, #119 ) ) ;
#147 = VERTEX_POINT ( 'NONE', #149 ) ;
#148 =( GEOMETRIC_REPRESENTATION_CONTEXT ( 3 ) GLOBAL_UNCERTAINTY_ASSIGNED_CONTEXT ( ( #71 ) ) GLOBAL_UNIT_ASSIGNED_CONTEXT ( ( #125, #135, #154 ) ) REPRESENTATION_CONTEXT ( 'NONE', 'WORKASPACE' ) );
#149 = CARTESIAN_POINT ( 'NONE',  ( 46.35442262622449100, 26.06225218280609500, 0.0000000000000000000 ) ) ;
#150 = CARTESIAN_POINT ( 'NONE',  ( 43.01195023616492100, 34.06225218280608400, 9.797174393178827600E-016 ) ) ;
#151 = DIRECTION ( 'NONE',  ( 4.058245434298766700E-016, 1.000000000000000000, 0.0000000000000000000 ) ) ;
#152 = DIRECTION ( 'NONE',  ( 1.000000000000000000, 0.0000000000000000000, 0.0000000000000000000 ) ) ;
#153 = CARTESIAN_POINT ( 'NONE',  ( 44.85442262622448300, 18.06225218280608400, 0.0000000000000000000 ) ) ;
#154 =( NAMED_UNIT ( * ) SI_UNIT ( $, .STERADIAN. ) SOLID_ANGLE_UNIT ( ) );
#155 = VERTEX_POINT ( 'NONE', #157 ) ;
#156 = PRESENTATION_LAYER_ASSIGNMENT (  '', '', ( #87 ) ) ;
#157 = CARTESIAN_POINT ( 'NONE',  ( 47.62400138441425000, 18.06225218280608000, 0.0000000000000000000 ) ) ;
#158 = PRESENTATION_STYLE_ASSIGNMENT (( #96 ) ) ;
#159 = DIRECTION ( 'NONE',  ( -1.000000000000000000, 4.058245434298766700E-016, -0.0000000000000000000 ) ) ;
#160 = SPHERICAL_SURFACE ( 'NONE', #116, 25.84000000000001100 ) ;
#161 = CARTESIAN_POINT ( 'NONE',  ( 44.85442262622448300, 26.06225218280608400, 0.0000000000000000000 ) ) ;
#162 = DIRECTION ( 'NONE',  ( 0.0000000000000000000, -1.000000000000000000, -1.224646799147353200E-016 ) ) ;
#163 = EDGE_LOOP ( 'NONE', ( #17, #117, #120, #59 ) ) ;
#164 = DIRECTION ( 'NONE',  ( -1.000000000000000000, 4.058245434298766700E-016, -0.0000000000000000000 ) ) ;
#165 =( NAMED_UNIT ( * ) SI_UNIT ( $, .STERADIAN. ) SOLID_ANGLE_UNIT ( ) );
#166 = ORIENTED_EDGE ( 'NONE', *, *, #5, .F. ) ;
ENDSEC;
END-ISO-10303-21;
