ISO-10303-21;
HEADER;
FILE_DESCRIPTION (( 'STEP AP214' ),
    '1' );
FILE_NAME ('120146.STEP',
    '2019-06-20T02:04:03',
    ( '' ),
    ( '' ),
    'SwSTEP 2.0',
    'SolidWorks 2016',
    '' );
FILE_SCHEMA (( 'AUTOMOTIVE_DESIGN' ));
ENDSEC;

DATA;
#1 = UNCERTAINTY_MEASURE_WITH_UNIT (LENGTH_MEASURE( 1.000000000000000100E-005 ), #47, 'distance_accuracy_value', 'NONE');
#2 = SPHERICAL_SURFACE ( 'NONE', #153, 51.64000000000000800 ) ;
#3 = ORIENTED_EDGE ( 'NONE', *, *, #66, .F. ) ;
#4 = ADVANCED_FACE ( 'NONE', ( #158 ), #133, .F. ) ;
#5 = DIRECTION ( 'NONE',  ( -1.000000000000000000, 4.058245434298766700E-016, -0.0000000000000000000 ) ) ;
#6 = DIRECTION ( 'NONE',  ( -1.000000000000000000, 0.0000000000000000000, 0.0000000000000000000 ) ) ;
#7 =( NAMED_UNIT ( * ) SI_UNIT ( $, .STERADIAN. ) SOLID_ANGLE_UNIT ( ) );
#8 = CARTESIAN_POINT ( 'NONE',  ( 0.0000000000000000000, 0.0000000000000000000, 0.0000000000000000000 ) ) ;
#9 = DIRECTION ( 'NONE',  ( 0.0000000000000000000, -1.000000000000000000, 0.0000000000000000000 ) ) ;
#10 = APPLICATION_PROTOCOL_DEFINITION ( 'draft international standard', 'automotive_design', 1998, #90 ) ;
#11 =( NAMED_UNIT ( * ) SI_UNIT ( $, .STERADIAN. ) SOLID_ANGLE_UNIT ( ) );
#12 = VECTOR ( 'NONE', #46, 1000.000000000000000 ) ;
#13 = AXIS2_PLACEMENT_3D ( 'NONE', #69, #114, #43 ) ;
#14 = ORIENTED_EDGE ( 'NONE', *, *, #45, .F. ) ;
#15 = EDGE_CURVE ( 'NONE', #157, #97, #118, .T. ) ;
#16 = PRESENTATION_LAYER_ASSIGNMENT (  '', '', ( #58 ) ) ;
#17 = ORIENTED_EDGE ( 'NONE', *, *, #25, .T. ) ;
#18 = ORIENTED_EDGE ( 'NONE', *, *, #15, .F. ) ;
#19 = PRESENTATION_STYLE_ASSIGNMENT (( #65 ) ) ;
#20 = EDGE_LOOP ( 'NONE', ( #17, #152 ) ) ;
#21 = CARTESIAN_POINT ( 'NONE',  ( 44.85442262622448300, 18.06225218280608400, 0.0000000000000000000 ) ) ;
#22 = CARTESIAN_POINT ( 'NONE',  ( 46.97786039131515400, 34.06225218280607700, 9.797174393178780300E-016 ) ) ;
#23 = DIRECTION ( 'NONE',  ( -5.374820994505985400E-016, -1.000000000000000000, 0.0000000000000000000 ) ) ;
#24 = ORIENTED_EDGE ( 'NONE', *, *, #101, .T. ) ;
#25 = EDGE_CURVE ( 'NONE', #115, #55, #78, .T. ) ;
#26 = UNCERTAINTY_MEASURE_WITH_UNIT (LENGTH_MEASURE( 1.000000000000000100E-005 ), #87, 'distance_accuracy_value', 'NONE');
#27 = COLOUR_RGB ( '',1.000000000000000000, 1.000000000000000000, 1.000000000000000000 ) ;
#28 = ORIENTED_EDGE ( 'NONE', *, *, #79, .F. ) ;
#29 = FILL_AREA_STYLE ('',( #117 ) ) ;
#30 = ORIENTED_EDGE ( 'NONE', *, *, #101, .F. ) ;
#31 = MECHANICAL_DESIGN_GEOMETRIC_PRESENTATION_REPRESENTATION (  '', ( #58 ), #156 ) ;
#32 = ORIENTED_EDGE ( 'NONE', *, *, #45, .T. ) ;
#33 = CIRCLE ( 'NONE', #75, 51.64000000000000800 ) ;
#34 = SHAPE_DEFINITION_REPRESENTATION ( #159, #155 ) ;
#35 =( LENGTH_UNIT ( ) NAMED_UNIT ( * ) SI_UNIT ( .MILLI., .METRE. ) );
#36 = DIRECTION ( 'NONE',  ( -4.969917281268344600E-032, -1.224646799147353200E-016, 1.000000000000000000 ) ) ;
#37 = CIRCLE ( 'NONE', #107, 8.000000000000000000 ) ;
#38 =( NAMED_UNIT ( * ) SI_UNIT ( $, .STERADIAN. ) SOLID_ANGLE_UNIT ( ) );
#39 = LINE ( 'NONE', #113, #51 ) ;
#40 = EDGE_CURVE ( 'NONE', #55, #115, #37, .T. ) ;
#41 = STYLED_ITEM ( 'NONE', ( #19 ), #155 ) ;
#42 = DIRECTION ( 'NONE',  ( 0.0000000000000000000, -1.000000000000000000, 0.0000000000000000000 ) ) ;
#43 = DIRECTION ( 'NONE',  ( 0.0000000000000000000, -1.000000000000000000, 0.0000000000000000000 ) ) ;
#44 = DIRECTION ( 'NONE',  ( -1.000000000000000000, 4.058245434298766700E-016, -0.0000000000000000000 ) ) ;
#45 = EDGE_CURVE ( 'NONE', #157, #115, #39, .T. ) ;
#46 = DIRECTION ( 'NONE',  ( -1.000000000000000000, 4.058245434298766700E-016, -0.0000000000000000000 ) ) ;
#47 =( LENGTH_UNIT ( ) NAMED_UNIT ( * ) SI_UNIT ( .MILLI., .METRE. ) );
#48 = AXIS2_PLACEMENT_3D ( 'NONE', #82, #99, #9 ) ;
#49 = EDGE_LOOP ( 'NONE', ( #28, #24, #18 ) ) ;
#50 = DIRECTION ( 'NONE',  ( 1.000000000000000000, 0.0000000000000000000, 0.0000000000000000000 ) ) ;
#51 = VECTOR ( 'NONE', #59, 1000.000000000000000 ) ;
#52 = ORIENTED_EDGE ( 'NONE', *, *, #91, .T. ) ;
#53 = CARTESIAN_POINT ( 'NONE',  ( 44.85442262622448300, 26.06225218280608400, 0.0000000000000000000 ) ) ;
#54 = MECHANICAL_DESIGN_GEOMETRIC_PRESENTATION_REPRESENTATION (  '', ( #41 ), #77 ) ;
#55 = VERTEX_POINT ( 'NONE', #85 ) ;
#56 = PRODUCT_DEFINITION_CONTEXT ( 'detailed design', #140, 'design' ) ;
#57 = AXIS2_PLACEMENT_3D ( 'NONE', #110, #144, #6 ) ;
#58 = STYLED_ITEM ( 'NONE', ( #143 ), #76 ) ;
#59 = DIRECTION ( 'NONE',  ( -1.000000000000000000, 4.058245434298766700E-016, -0.0000000000000000000 ) ) ;
#60 = CIRCLE ( 'NONE', #13, 8.000000000000000000 ) ;
#61 = CARTESIAN_POINT ( 'NONE',  ( 97.99442240797795000, 26.06225218280609800, 0.0000000000000000000 ) ) ;
#62 = CARTESIAN_POINT ( 'NONE',  ( 43.01195023616492100, 26.06225218280608400, 0.0000000000000000000 ) ) ;
#63 = DIRECTION ( 'NONE',  ( 0.0000000000000000000, 0.0000000000000000000, 1.000000000000000000 ) ) ;
#64 = CLOSED_SHELL ( 'NONE', ( #111, #160, #121, #72, #4 ) ) ;
#65 = SURFACE_STYLE_USAGE ( .BOTH. , #127 ) ;
#66 = EDGE_CURVE ( 'NONE', #92, #55, #161, .T. ) ;
#67 = PRODUCT ( '120146', '120146', '', ( #128 ) ) ;
#68 = DIRECTION ( 'NONE',  ( 1.000000000000000000, -4.058245434298766700E-016, 0.0000000000000000000 ) ) ;
#69 = CARTESIAN_POINT ( 'NONE',  ( 46.97786039131515400, 26.06225218280608400, 0.0000000000000000000 ) ) ;
#70 = CARTESIAN_POINT ( 'NONE',  ( 46.35442240797795000, 26.06225218280611600, 0.0000000000000000000 ) ) ;
#71 = DIRECTION ( 'NONE',  ( 0.0000000000000000000, -1.000000000000000000, 0.0000000000000000000 ) ) ;
#72 = ADVANCED_FACE ( 'NONE', ( #89 ), #151, .T. ) ;
#73 = AXIS2_PLACEMENT_3D ( 'NONE', #8, #63, #50 ) ;
#74 = CYLINDRICAL_SURFACE ( 'NONE', #142, 8.000000000000000000 ) ;
#75 = AXIS2_PLACEMENT_3D ( 'NONE', #165, #36, #123 ) ;
#76 = MANIFOLD_SOLID_BREP ( 'Ðý×ª1', #64 ) ;
#77 =( GEOMETRIC_REPRESENTATION_CONTEXT ( 3 ) GLOBAL_UNCERTAINTY_ASSIGNED_CONTEXT ( ( #26 ) ) GLOBAL_UNIT_ASSIGNED_CONTEXT ( ( #87, #106, #11 ) ) REPRESENTATION_CONTEXT ( 'NONE', 'WORKASPACE' ) );
#78 = CIRCLE ( 'NONE', #48, 8.000000000000000000 ) ;
#79 = EDGE_CURVE ( 'NONE', #92, #157, #131, .T. ) ;
#80 = SURFACE_STYLE_FILL_AREA ( #134 ) ;
#81 = CARTESIAN_POINT ( 'NONE',  ( 44.85442262622448300, 26.06225218280608400, 0.0000000000000000000 ) ) ;
#82 = CARTESIAN_POINT ( 'NONE',  ( 44.85442262622448300, 26.06225218280608400, 0.0000000000000000000 ) ) ;
#83 = CARTESIAN_POINT ( 'NONE',  ( 97.99442240797795000, 26.06225218280609800, 0.0000000000000000000 ) ) ;
#84 = DIRECTION ( 'NONE',  ( -1.000000000000000000, 4.058245434298766700E-016, -0.0000000000000000000 ) ) ;
#85 = CARTESIAN_POINT ( 'NONE',  ( 44.85442262622448300, 34.06225218280608400, 9.797174393178825700E-016 ) ) ;
#86 = FACE_OUTER_BOUND ( 'NONE', #109, .T. ) ;
#87 =( LENGTH_UNIT ( ) NAMED_UNIT ( * ) SI_UNIT ( .MILLI., .METRE. ) );
#88 = PRODUCT_DEFINITION ( 'Î´Öª', '', #164, #56 ) ;
#89 = FACE_OUTER_BOUND ( 'NONE', #148, .T. ) ;
#90 = APPLICATION_CONTEXT ( 'automotive_design' ) ;
#91 = EDGE_CURVE ( 'NONE', #157, #92, #60, .T. ) ;
#92 = VERTEX_POINT ( 'NONE', #22 ) ;
#93 = AXIS2_PLACEMENT_3D ( 'NONE', #61, #149, #125 ) ;
#94 = DIRECTION ( 'NONE',  ( 4.058245434298766700E-016, 1.000000000000000000, 0.0000000000000000000 ) ) ;
#95 = ORIENTED_EDGE ( 'NONE', *, *, #91, .F. ) ;
#96 = AXIS2_PLACEMENT_3D ( 'NONE', #122, #84, #42 ) ;
#97 = VERTEX_POINT ( 'NONE', #70 ) ;
#98 = DIRECTION ( 'NONE',  ( 0.0000000000000000000, -1.000000000000000000, 0.0000000000000000000 ) ) ;
#99 = DIRECTION ( 'NONE',  ( -1.000000000000000000, 4.058245434298766700E-016, -0.0000000000000000000 ) ) ;
#100 = DIRECTION ( 'NONE',  ( 0.0000000000000000000, -1.000000000000000000, 0.0000000000000000000 ) ) ;
#101 = EDGE_CURVE ( 'NONE', #92, #97, #33, .T. ) ;
#102 = EDGE_LOOP ( 'NONE', ( #52, #129, #120, #14 ) ) ;
#103 = DIRECTION ( 'NONE',  ( 0.0000000000000000000, 0.0000000000000000000, 1.000000000000000000 ) ) ;
#104 = APPLICATION_PROTOCOL_DEFINITION ( 'draft international standard', 'automotive_design', 1998, #140 ) ;
#105 = FACE_OUTER_BOUND ( 'NONE', #49, .T. ) ;
#106 =( NAMED_UNIT ( * ) PLANE_ANGLE_UNIT ( ) SI_UNIT ( $, .RADIAN. ) );
#107 = AXIS2_PLACEMENT_3D ( 'NONE', #81, #147, #100 ) ;
#108 = SURFACE_STYLE_FILL_AREA ( #29 ) ;
#109 = EDGE_LOOP ( 'NONE', ( #30, #95, #141 ) ) ;
#110 = CARTESIAN_POINT ( 'NONE',  ( 97.99442240797795000, 26.06225218280609800, 0.0000000000000000000 ) ) ;
#111 = ADVANCED_FACE ( 'NONE', ( #145 ), #74, .T. ) ;
#112 = SURFACE_SIDE_STYLE ('',( #80 ) ) ;
#113 = CARTESIAN_POINT ( 'NONE',  ( 43.01195023616492100, 18.06225218280608400, 0.0000000000000000000 ) ) ;
#114 = DIRECTION ( 'NONE',  ( -1.000000000000000000, 4.058245434298766700E-016, -0.0000000000000000000 ) ) ;
#115 = VERTEX_POINT ( 'NONE', #21 ) ;
#116 = AXIS2_PLACEMENT_3D ( 'NONE', #53, #68, #94 ) ;
#117 = FILL_AREA_STYLE_COLOUR ( '', #27 ) ;
#118 = CIRCLE ( 'NONE', #57, 51.64000000000000800 ) ;
#119 = COLOUR_RGB ( '',1.000000000000000000, 1.000000000000000000, 1.000000000000000000 ) ;
#120 = ORIENTED_EDGE ( 'NONE', *, *, #25, .F. ) ;
#121 = ADVANCED_FACE ( 'NONE', ( #86 ), #166, .F. ) ;
#122 = CARTESIAN_POINT ( 'NONE',  ( 46.97786039131515400, 26.06225218280608400, 0.0000000000000000000 ) ) ;
#123 = DIRECTION ( 'NONE',  ( 0.0000000000000000000, -1.000000000000000000, -1.224646799147353200E-016 ) ) ;
#124 = FILL_AREA_STYLE_COLOUR ( '', #119 ) ;
#125 = DIRECTION ( 'NONE',  ( -5.374820994505985400E-016, -1.000000000000000000, 0.0000000000000000000 ) ) ;
#126 = PRESENTATION_LAYER_ASSIGNMENT (  '', '', ( #41 ) ) ;
#127 = SURFACE_SIDE_STYLE ('',( #108 ) ) ;
#128 = PRODUCT_CONTEXT ( 'NONE', #90, 'mechanical' ) ;
#129 = ORIENTED_EDGE ( 'NONE', *, *, #66, .T. ) ;
#130 = AXIS2_PLACEMENT_3D ( 'NONE', #137, #5, #71 ) ;
#131 = CIRCLE ( 'NONE', #96, 8.000000000000000000 ) ;
#132 = ORIENTED_EDGE ( 'NONE', *, *, #79, .T. ) ;
#133 = PLANE ( 'NONE',  #116 ) ;
#134 = FILL_AREA_STYLE ('',( #124 ) ) ;
#135 =( NAMED_UNIT ( * ) PLANE_ANGLE_UNIT ( ) SI_UNIT ( $, .RADIAN. ) );
#136 =( GEOMETRIC_REPRESENTATION_CONTEXT ( 3 ) GLOBAL_UNCERTAINTY_ASSIGNED_CONTEXT ( ( #1 ) ) GLOBAL_UNIT_ASSIGNED_CONTEXT ( ( #47, #138, #38 ) ) REPRESENTATION_CONTEXT ( 'NONE', 'WORKASPACE' ) );
#137 = CARTESIAN_POINT ( 'NONE',  ( 43.01195023616492100, 26.06225218280608400, 0.0000000000000000000 ) ) ;
#138 =( NAMED_UNIT ( * ) PLANE_ANGLE_UNIT ( ) SI_UNIT ( $, .RADIAN. ) );
#139 = UNCERTAINTY_MEASURE_WITH_UNIT (LENGTH_MEASURE( 1.000000000000000100E-005 ), #35, 'distance_accuracy_value', 'NONE');
#140 = APPLICATION_CONTEXT ( 'automotive_design' ) ;
#141 = ORIENTED_EDGE ( 'NONE', *, *, #15, .T. ) ;
#142 = AXIS2_PLACEMENT_3D ( 'NONE', #62, #44, #98 ) ;
#143 = PRESENTATION_STYLE_ASSIGNMENT (( #162 ) ) ;
#144 = DIRECTION ( 'NONE',  ( 0.0000000000000000000, -0.0000000000000000000, -1.000000000000000000 ) ) ;
#145 = FACE_OUTER_BOUND ( 'NONE', #102, .T. ) ;
#146 = PRODUCT_RELATED_PRODUCT_CATEGORY ( 'part', '', ( #67 ) ) ;
#147 = DIRECTION ( 'NONE',  ( -1.000000000000000000, 4.058245434298766700E-016, -0.0000000000000000000 ) ) ;
#148 = EDGE_LOOP ( 'NONE', ( #3, #132, #32, #154 ) ) ;
#149 = DIRECTION ( 'NONE',  ( 0.0000000000000000000, 0.0000000000000000000, 1.000000000000000000 ) ) ;
#150 = CARTESIAN_POINT ( 'NONE',  ( 43.01195023616492100, 34.06225218280608400, 9.797174393178825700E-016 ) ) ;
#151 = CYLINDRICAL_SURFACE ( 'NONE', #130, 8.000000000000000000 ) ;
#152 = ORIENTED_EDGE ( 'NONE', *, *, #40, .T. ) ;
#153 = AXIS2_PLACEMENT_3D ( 'NONE', #83, #103, #23 ) ;
#154 = ORIENTED_EDGE ( 'NONE', *, *, #40, .F. ) ;
#155 = ADVANCED_BREP_SHAPE_REPRESENTATION ( '120146', ( #76, #73 ), #136 ) ;
#156 =( GEOMETRIC_REPRESENTATION_CONTEXT ( 3 ) GLOBAL_UNCERTAINTY_ASSIGNED_CONTEXT ( ( #139 ) ) GLOBAL_UNIT_ASSIGNED_CONTEXT ( ( #35, #135, #7 ) ) REPRESENTATION_CONTEXT ( 'NONE', 'WORKASPACE' ) );
#157 = VERTEX_POINT ( 'NONE', #163 ) ;
#158 = FACE_OUTER_BOUND ( 'NONE', #20, .T. ) ;
#159 = PRODUCT_DEFINITION_SHAPE ( 'NONE', 'NONE',  #88 ) ;
#160 = ADVANCED_FACE ( 'NONE', ( #105 ), #2, .F. ) ;
#161 = LINE ( 'NONE', #150, #12 ) ;
#162 = SURFACE_STYLE_USAGE ( .BOTH. , #112 ) ;
#163 = CARTESIAN_POINT ( 'NONE',  ( 46.97786039131515400, 18.06225218280612000, 0.0000000000000000000 ) ) ;
#164 = PRODUCT_DEFINITION_FORMATION_WITH_SPECIFIED_SOURCE ( 'ÈÎºÎ', '', #67, .NOT_KNOWN. ) ;
#165 = CARTESIAN_POINT ( 'NONE',  ( 97.99442240797795000, 26.06225218280609800, 0.0000000000000000000 ) ) ;
#166 = SPHERICAL_SURFACE ( 'NONE', #93, 51.64000000000000800 ) ;
ENDSEC;
END-ISO-10303-21;
