ISO-10303-21;
HEADER;
FILE_DESCRIPTION (( 'STEP AP214' ),
    '1' );
FILE_NAME ('120243.STEP',
    '2019-06-24T05:48:33',
    ( '' ),
    ( '' ),
    'SwSTEP 2.0',
    'SolidWorks 2016',
    '' );
FILE_SCHEMA (( 'AUTOMOTIVE_DESIGN' ));
ENDSEC;

DATA;
#1 = AXIS2_PLACEMENT_3D ( 'NONE', #39, #27, #167 ) ;
#2 = AXIS2_PLACEMENT_3D ( 'NONE', #8, #23, #97 ) ;
#3 = CARTESIAN_POINT ( 'NONE',  ( 11.08059508478296000, 6.515563045701520100, 2.000000000000000900 ) ) ;
#4 = SPHERICAL_SURFACE ( 'NONE', #91, 9.170000000000001700 ) ;
#5 = ADVANCED_FACE ( 'NONE', ( #44 ), #4, .F. ) ;
#6 = EDGE_CURVE ( 'NONE', #15, #110, #77, .T. ) ;
#7 = PRESENTATION_STYLE_ASSIGNMENT (( #52 ) ) ;
#8 = CARTESIAN_POINT ( 'NONE',  ( 22.03059508478295900, 6.515563045701521000, 0.0000000000000000000 ) ) ;
#9 =( NAMED_UNIT ( * ) SI_UNIT ( $, .STERADIAN. ) SOLID_ANGLE_UNIT ( ) );
#10 = UNCERTAINTY_MEASURE_WITH_UNIT (LENGTH_MEASURE( 1.000000000000000100E-005 ), #143, 'distance_accuracy_value', 'NONE');
#11 = APPLICATION_CONTEXT ( 'automotive_design' ) ;
#12 = FACE_OUTER_BOUND ( 'NONE', #116, .T. ) ;
#13 = CARTESIAN_POINT ( 'NONE',  ( 13.08135489357119300, 6.515563045701520100, 0.0000000000000000000 ) ) ;
#14 =( LENGTH_UNIT ( ) NAMED_UNIT ( * ) SI_UNIT ( .MILLI., .METRE. ) );
#15 = VERTEX_POINT ( 'NONE', #164 ) ;
#16 = AXIS2_PLACEMENT_3D ( 'NONE', #50, #166, #85 ) ;
#17 = PRODUCT ( '120243', '120243', '', ( #101 ) ) ;
#18 = EDGE_CURVE ( 'NONE', #46, #103, #155, .T. ) ;
#19 = COLOUR_RGB ( '',1.000000000000000000, 1.000000000000000000, 1.000000000000000000 ) ;
#20 = ADVANCED_BREP_SHAPE_REPRESENTATION ( '120243', ( #71, #16 ), #158 ) ;
#21 = ORIENTED_EDGE ( 'NONE', *, *, #182, .F. ) ;
#22 = CIRCLE ( 'NONE', #99, 2.000000000000000900 ) ;
#23 = DIRECTION ( 'NONE',  ( 0.0000000000000000000, 0.0000000000000000000, -1.000000000000000000 ) ) ;
#24 = EDGE_CURVE ( 'NONE', #15, #81, #22, .T. ) ;
#25 =( LENGTH_UNIT ( ) NAMED_UNIT ( * ) SI_UNIT ( .MILLI., .METRE. ) );
#26 = CARTESIAN_POINT ( 'NONE',  ( 10.57823596122213100, 6.515563045701520100, 0.0000000000000000000 ) ) ;
#27 = DIRECTION ( 'NONE',  ( 1.000000000000000000, 0.0000000000000000000, 0.0000000000000000000 ) ) ;
#28 = ORIENTED_EDGE ( 'NONE', *, *, #38, .T. ) ;
#29 = SURFACE_SIDE_STYLE ('',( #45 ) ) ;
#30 = SHAPE_DEFINITION_REPRESENTATION ( #172, #20 ) ;
#31 = ORIENTED_EDGE ( 'NONE', *, *, #38, .F. ) ;
#32 = ORIENTED_EDGE ( 'NONE', *, *, #24, .T. ) ;
#33 = DIRECTION ( 'NONE',  ( 0.0000000000000000000, 0.0000000000000000000, 1.000000000000000000 ) ) ;
#34 = DIRECTION ( 'NONE',  ( 0.0000000000000000000, -1.000000000000000000, 0.0000000000000000000 ) ) ;
#35 = CIRCLE ( 'NONE', #86, 2.000000000000000900 ) ;
#36 = FILL_AREA_STYLE_COLOUR ( '', #19 ) ;
#37 = FILL_AREA_STYLE ('',( #136 ) ) ;
#38 = EDGE_CURVE ( 'NONE', #110, #54, #130, .T. ) ;
#39 = CARTESIAN_POINT ( 'NONE',  ( 11.08059508478296000, 6.515563045701520100, 0.0000000000000000000 ) ) ;
#40 =( NAMED_UNIT ( * ) SI_UNIT ( $, .STERADIAN. ) SOLID_ANGLE_UNIT ( ) );
#41 = EDGE_LOOP ( 'NONE', ( #175, #146, #21, #134 ) ) ;
#42 = AXIS2_PLACEMENT_3D ( 'NONE', #62, #180, #63 ) ;
#43 = AXIS2_PLACEMENT_3D ( 'NONE', #152, #87, #113 ) ;
#44 = FACE_OUTER_BOUND ( 'NONE', #41, .T. ) ;
#45 = SURFACE_STYLE_FILL_AREA ( #37 ) ;
#46 = VERTEX_POINT ( 'NONE', #137 ) ;
#47 = FACE_OUTER_BOUND ( 'NONE', #159, .T. ) ;
#48 = UNCERTAINTY_MEASURE_WITH_UNIT (LENGTH_MEASURE( 1.000000000000000100E-005 ), #25, 'distance_accuracy_value', 'NONE');
#49 = DIRECTION ( 'NONE',  ( -1.000000000000000000, -0.0000000000000000000, -0.0000000000000000000 ) ) ;
#50 = CARTESIAN_POINT ( 'NONE',  ( 0.0000000000000000000, 0.0000000000000000000, 0.0000000000000000000 ) ) ;
#51 = APPLICATION_PROTOCOL_DEFINITION ( 'draft international standard', 'automotive_design', 1998, #183 ) ;
#52 = SURFACE_STYLE_USAGE ( .BOTH. , #29 ) ;
#53 = DIRECTION ( 'NONE',  ( -1.000000000000000000, -0.0000000000000000000, -0.0000000000000000000 ) ) ;
#54 = VERTEX_POINT ( 'NONE', #79 ) ;
#55 = EDGE_CURVE ( 'NONE', #81, #135, #163, .T. ) ;
#56 = AXIS2_PLACEMENT_3D ( 'NONE', #26, #185, #68 ) ;
#57 = EDGE_LOOP ( 'NONE', ( #28, #89 ) ) ;
#58 = AXIS2_PLACEMENT_3D ( 'NONE', #179, #162, #80 ) ;
#59 = DIRECTION ( 'NONE',  ( -1.000000000000000000, -0.0000000000000000000, -0.0000000000000000000 ) ) ;
#60 = ORIENTED_EDGE ( 'NONE', *, *, #64, .T. ) ;
#61 = ADVANCED_FACE ( 'NONE', ( #47 ), #90, .F. ) ;
#62 = CARTESIAN_POINT ( 'NONE',  ( 22.03059508478295900, 6.515563045701521000, 0.0000000000000000000 ) ) ;
#63 = DIRECTION ( 'NONE',  ( 0.0000000000000000000, -1.000000000000000000, -1.224646799147353000E-016 ) ) ;
#64 = EDGE_CURVE ( 'NONE', #81, #103, #93, .T. ) ;
#65 = CIRCLE ( 'NONE', #145, 2.000000000000000900 ) ;
#66 = PRODUCT_DEFINITION ( 'Î´Öª', '', #115, #114 ) ;
#67 =( NAMED_UNIT ( * ) SI_UNIT ( $, .STERADIAN. ) SOLID_ANGLE_UNIT ( ) );
#68 = DIRECTION ( 'NONE',  ( 0.0000000000000000000, 0.0000000000000000000, 1.000000000000000000 ) ) ;
#69 = CARTESIAN_POINT ( 'NONE',  ( 11.08059508478296000, 6.515563045701520100, 0.0000000000000000000 ) ) ;
#70 = ORIENTED_EDGE ( 'NONE', *, *, #6, .F. ) ;
#71 = MANIFOLD_SOLID_BREP ( 'Ðý×ª1', #104 ) ;
#72 = ORIENTED_EDGE ( 'NONE', *, *, #78, .F. ) ;
#73 = DIRECTION ( 'NONE',  ( -1.000000000000000000, -0.0000000000000000000, -0.0000000000000000000 ) ) ;
#74 = CARTESIAN_POINT ( 'NONE',  ( 13.08135489357119300, 6.515563045701520100, -2.000000000000000900 ) ) ;
#75 = STYLED_ITEM ( 'NONE', ( #7 ), #71 ) ;
#76 = ORIENTED_EDGE ( 'NONE', *, *, #95, .T. ) ;
#77 = LINE ( 'NONE', #83, #157 ) ;
#78 = EDGE_CURVE ( 'NONE', #54, #110, #173, .T. ) ;
#79 = CARTESIAN_POINT ( 'NONE',  ( 11.08059508478296000, 6.515563045701520100, -2.000000000000000900 ) ) ;
#80 = DIRECTION ( 'NONE',  ( 0.0000000000000000000, -1.000000000000000000, 0.0000000000000000000 ) ) ;
#81 = VERTEX_POINT ( 'NONE', #127 ) ;
#82 = VECTOR ( 'NONE', #53, 1000.000000000000000 ) ;
#83 = CARTESIAN_POINT ( 'NONE',  ( 10.57823596122213100, 6.515563045701520100, 2.000000000000000900 ) ) ;
#84 = CARTESIAN_POINT ( 'NONE',  ( 22.03059508478295900, 6.515563045701521000, 0.0000000000000000000 ) ) ;
#85 = DIRECTION ( 'NONE',  ( 1.000000000000000000, 0.0000000000000000000, 0.0000000000000000000 ) ) ;
#86 = AXIS2_PLACEMENT_3D ( 'NONE', #128, #184, #88 ) ;
#87 = DIRECTION ( 'NONE',  ( -1.000000000000000000, -0.0000000000000000000, -0.0000000000000000000 ) ) ;
#88 = DIRECTION ( 'NONE',  ( 0.0000000000000000000, 0.0000000000000000000, 1.000000000000000000 ) ) ;
#89 = ORIENTED_EDGE ( 'NONE', *, *, #78, .T. ) ;
#90 = SPHERICAL_SURFACE ( 'NONE', #58, 9.170000000000001700 ) ;
#91 = AXIS2_PLACEMENT_3D ( 'NONE', #84, #123, #34 ) ;
#92 = ORIENTED_EDGE ( 'NONE', *, *, #95, .F. ) ;
#93 = CIRCLE ( 'NONE', #42, 9.170000000000001700 ) ;
#94 = UNCERTAINTY_MEASURE_WITH_UNIT (LENGTH_MEASURE( 1.000000000000000100E-005 ), #14, 'distance_accuracy_value', 'NONE');
#95 = EDGE_CURVE ( 'NONE', #135, #46, #35, .T. ) ;
#96 = MECHANICAL_DESIGN_GEOMETRIC_PRESENTATION_REPRESENTATION (  '', ( #75 ), #132 ) ;
#97 = DIRECTION ( 'NONE',  ( -1.000000000000000000, 0.0000000000000000000, 0.0000000000000000000 ) ) ;
#98 = DIRECTION ( 'NONE',  ( 0.0000000000000000000, 0.0000000000000000000, 1.000000000000000000 ) ) ;
#99 = AXIS2_PLACEMENT_3D ( 'NONE', #121, #49, #33 ) ;
#100 =( NAMED_UNIT ( * ) PLANE_ANGLE_UNIT ( ) SI_UNIT ( $, .RADIAN. ) );
#101 = PRODUCT_CONTEXT ( 'NONE', #183, 'mechanical' ) ;
#102 = SURFACE_STYLE_USAGE ( .BOTH. , #171 ) ;
#103 = VERTEX_POINT ( 'NONE', #139 ) ;
#104 = CLOSED_SHELL ( 'NONE', ( #138, #61, #5, #181, #112 ) ) ;
#105 = STYLED_ITEM ( 'NONE', ( #156 ), #20 ) ;
#106 = ORIENTED_EDGE ( 'NONE', *, *, #154, .T. ) ;
#107 = AXIS2_PLACEMENT_3D ( 'NONE', #133, #148, #98 ) ;
#108 = CYLINDRICAL_SURFACE ( 'NONE', #43, 2.000000000000000900 ) ;
#109 = ORIENTED_EDGE ( 'NONE', *, *, #154, .F. ) ;
#110 = VERTEX_POINT ( 'NONE', #3 ) ;
#111 = PRESENTATION_LAYER_ASSIGNMENT (  '', '', ( #75 ) ) ;
#112 = ADVANCED_FACE ( 'NONE', ( #151 ), #186, .F. ) ;
#113 = DIRECTION ( 'NONE',  ( 0.0000000000000000000, 0.0000000000000000000, 1.000000000000000000 ) ) ;
#114 = PRODUCT_DEFINITION_CONTEXT ( 'detailed design', #11, 'design' ) ;
#115 = PRODUCT_DEFINITION_FORMATION_WITH_SPECIFIED_SOURCE ( 'ÈÎºÎ', '', #17, .NOT_KNOWN. ) ;
#116 = EDGE_LOOP ( 'NONE', ( #109, #76, #122, #142, #72 ) ) ;
#117 = DIRECTION ( 'NONE',  ( 0.0000000000000000000, 0.0000000000000000000, 1.000000000000000000 ) ) ;
#118 = FILL_AREA_STYLE ('',( #36 ) ) ;
#119 = AXIS2_PLACEMENT_3D ( 'NONE', #149, #59, #161 ) ;
#120 =( GEOMETRIC_REPRESENTATION_CONTEXT ( 3 ) GLOBAL_UNCERTAINTY_ASSIGNED_CONTEXT ( ( #94 ) ) GLOBAL_UNIT_ASSIGNED_CONTEXT ( ( #14, #150, #40 ) ) REPRESENTATION_CONTEXT ( 'NONE', 'WORKASPACE' ) );
#121 = CARTESIAN_POINT ( 'NONE',  ( 13.08135489357119300, 6.515563045701520100, 0.0000000000000000000 ) ) ;
#122 = ORIENTED_EDGE ( 'NONE', *, *, #182, .T. ) ;
#123 = DIRECTION ( 'NONE',  ( 0.0000000000000000000, 0.0000000000000000000, 1.000000000000000000 ) ) ;
#124 = COLOUR_RGB ( '',1.000000000000000000, 1.000000000000000000, 1.000000000000000000 ) ;
#125 = DIRECTION ( 'NONE',  ( -1.000000000000000000, -0.0000000000000000000, -0.0000000000000000000 ) ) ;
#126 = APPLICATION_PROTOCOL_DEFINITION ( 'draft international standard', 'automotive_design', 1998, #11 ) ;
#127 = CARTESIAN_POINT ( 'NONE',  ( 13.08135489357119300, 8.515563045701522800, 2.449293598294708900E-016 ) ) ;
#128 = CARTESIAN_POINT ( 'NONE',  ( 13.08135489357119300, 6.515563045701520100, 0.0000000000000000000 ) ) ;
#129 = SURFACE_STYLE_FILL_AREA ( #118 ) ;
#130 = CIRCLE ( 'NONE', #107, 2.000000000000000900 ) ;
#131 = FACE_OUTER_BOUND ( 'NONE', #178, .T. ) ;
#132 =( GEOMETRIC_REPRESENTATION_CONTEXT ( 3 ) GLOBAL_UNCERTAINTY_ASSIGNED_CONTEXT ( ( #10 ) ) GLOBAL_UNIT_ASSIGNED_CONTEXT ( ( #143, #100, #9 ) ) REPRESENTATION_CONTEXT ( 'NONE', 'WORKASPACE' ) );
#133 = CARTESIAN_POINT ( 'NONE',  ( 11.08059508478296000, 6.515563045701520100, 0.0000000000000000000 ) ) ;
#134 = ORIENTED_EDGE ( 'NONE', *, *, #18, .T. ) ;
#135 = VERTEX_POINT ( 'NONE', #74 ) ;
#136 = FILL_AREA_STYLE_COLOUR ( '', #124 ) ;
#137 = CARTESIAN_POINT ( 'NONE',  ( 13.08135489357119300, 4.515563045701518300, 0.0000000000000000000 ) ) ;
#138 = ADVANCED_FACE ( 'NONE', ( #131 ), #108, .T. ) ;
#139 = CARTESIAN_POINT ( 'NONE',  ( 12.86059508478295800, 6.515563045701520100, 0.0000000000000000000 ) ) ;
#140 = AXIS2_PLACEMENT_3D ( 'NONE', #69, #73, #153 ) ;
#141 = ORIENTED_EDGE ( 'NONE', *, *, #55, .F. ) ;
#142 = ORIENTED_EDGE ( 'NONE', *, *, #6, .T. ) ;
#143 =( LENGTH_UNIT ( ) NAMED_UNIT ( * ) SI_UNIT ( .MILLI., .METRE. ) );
#144 = CARTESIAN_POINT ( 'NONE',  ( 10.57823596122213100, 6.515563045701520100, -2.000000000000000900 ) ) ;
#145 = AXIS2_PLACEMENT_3D ( 'NONE', #13, #168, #117 ) ;
#146 = ORIENTED_EDGE ( 'NONE', *, *, #24, .F. ) ;
#147 = MECHANICAL_DESIGN_GEOMETRIC_PRESENTATION_REPRESENTATION (  '', ( #105 ), #120 ) ;
#148 = DIRECTION ( 'NONE',  ( -1.000000000000000000, -0.0000000000000000000, -0.0000000000000000000 ) ) ;
#149 = CARTESIAN_POINT ( 'NONE',  ( 13.08135489357119300, 6.515563045701520100, 0.0000000000000000000 ) ) ;
#150 =( NAMED_UNIT ( * ) PLANE_ANGLE_UNIT ( ) SI_UNIT ( $, .RADIAN. ) );
#151 = FACE_OUTER_BOUND ( 'NONE', #57, .T. ) ;
#152 = CARTESIAN_POINT ( 'NONE',  ( 10.57823596122213100, 6.515563045701520100, 0.0000000000000000000 ) ) ;
#153 = DIRECTION ( 'NONE',  ( 0.0000000000000000000, 0.0000000000000000000, 1.000000000000000000 ) ) ;
#154 = EDGE_CURVE ( 'NONE', #135, #54, #160, .T. ) ;
#155 = CIRCLE ( 'NONE', #2, 9.170000000000001700 ) ;
#156 = PRESENTATION_STYLE_ASSIGNMENT (( #102 ) ) ;
#157 = VECTOR ( 'NONE', #125, 1000.000000000000000 ) ;
#158 =( GEOMETRIC_REPRESENTATION_CONTEXT ( 3 ) GLOBAL_UNCERTAINTY_ASSIGNED_CONTEXT ( ( #48 ) ) GLOBAL_UNIT_ASSIGNED_CONTEXT ( ( #25, #170, #67 ) ) REPRESENTATION_CONTEXT ( 'NONE', 'WORKASPACE' ) );
#159 = EDGE_LOOP ( 'NONE', ( #141, #60, #176, #92 ) ) ;
#160 = LINE ( 'NONE', #144, #82 ) ;
#161 = DIRECTION ( 'NONE',  ( 0.0000000000000000000, 0.0000000000000000000, 1.000000000000000000 ) ) ;
#162 = DIRECTION ( 'NONE',  ( 0.0000000000000000000, 0.0000000000000000000, 1.000000000000000000 ) ) ;
#163 = CIRCLE ( 'NONE', #119, 2.000000000000000900 ) ;
#164 = CARTESIAN_POINT ( 'NONE',  ( 13.08135489357119300, 6.515563045701520100, 2.000000000000000900 ) ) ;
#165 = CYLINDRICAL_SURFACE ( 'NONE', #56, 2.000000000000000900 ) ;
#166 = DIRECTION ( 'NONE',  ( 0.0000000000000000000, 0.0000000000000000000, 1.000000000000000000 ) ) ;
#167 = DIRECTION ( 'NONE',  ( 0.0000000000000000000, 0.0000000000000000000, -1.000000000000000000 ) ) ;
#168 = DIRECTION ( 'NONE',  ( -1.000000000000000000, -0.0000000000000000000, -0.0000000000000000000 ) ) ;
#169 = PRESENTATION_LAYER_ASSIGNMENT (  '', '', ( #105 ) ) ;
#170 =( NAMED_UNIT ( * ) PLANE_ANGLE_UNIT ( ) SI_UNIT ( $, .RADIAN. ) );
#171 = SURFACE_SIDE_STYLE ('',( #129 ) ) ;
#172 = PRODUCT_DEFINITION_SHAPE ( 'NONE', 'NONE',  #66 ) ;
#173 = CIRCLE ( 'NONE', #140, 2.000000000000000900 ) ;
#174 = PRODUCT_RELATED_PRODUCT_CATEGORY ( 'part', '', ( #17 ) ) ;
#175 = ORIENTED_EDGE ( 'NONE', *, *, #64, .F. ) ;
#176 = ORIENTED_EDGE ( 'NONE', *, *, #18, .F. ) ;
#177 = ORIENTED_EDGE ( 'NONE', *, *, #55, .T. ) ;
#178 = EDGE_LOOP ( 'NONE', ( #177, #106, #31, #70, #32 ) ) ;
#179 = CARTESIAN_POINT ( 'NONE',  ( 22.03059508478295900, 6.515563045701521000, 0.0000000000000000000 ) ) ;
#180 = DIRECTION ( 'NONE',  ( 0.0000000000000000000, -1.224646799147353200E-016, 1.000000000000000000 ) ) ;
#181 = ADVANCED_FACE ( 'NONE', ( #12 ), #165, .T. ) ;
#182 = EDGE_CURVE ( 'NONE', #46, #15, #65, .T. ) ;
#183 = APPLICATION_CONTEXT ( 'automotive_design' ) ;
#184 = DIRECTION ( 'NONE',  ( -1.000000000000000000, -0.0000000000000000000, -0.0000000000000000000 ) ) ;
#185 = DIRECTION ( 'NONE',  ( -1.000000000000000000, -0.0000000000000000000, -0.0000000000000000000 ) ) ;
#186 = PLANE ( 'NONE',  #1 ) ;
ENDSEC;
END-ISO-10303-21;
