ISO-10303-21;
HEADER;
FILE_DESCRIPTION (( 'STEP AP214' ),
    '1' );
FILE_NAME ('120245.STEP',
    '2019-06-24T05:58:31',
    ( '' ),
    ( '' ),
    'SwSTEP 2.0',
    'SolidWorks 2016',
    '' );
FILE_SCHEMA (( 'AUTOMOTIVE_DESIGN' ));
ENDSEC;

DATA;
#1 = ORIENTED_EDGE ( 'NONE', *, *, #116, .F. ) ;
#2 = EDGE_CURVE ( 'NONE', #128, #163, #107, .T. ) ;
#3 = CYLINDRICAL_SURFACE ( 'NONE', #102, 3.149999999999998100 ) ;
#4 = ADVANCED_FACE ( 'NONE', ( #131 ), #169, .T. ) ;
#5 = EDGE_CURVE ( 'NONE', #142, #115, #91, .T. ) ;
#6 = ORIENTED_EDGE ( 'NONE', *, *, #148, .T. ) ;
#7 = ADVANCED_BREP_SHAPE_REPRESENTATION ( '120245', ( #9, #62 ), #161 ) ;
#8 = EDGE_LOOP ( 'NONE', ( #184, #51, #150, #35 ) ) ;
#9 = MANIFOLD_SOLID_BREP ( 'Ðý×ª1', #77 ) ;
#10 = PRODUCT ( '120245', '120245', '', ( #58 ) ) ;
#11 = FACE_OUTER_BOUND ( 'NONE', #67, .T. ) ;
#12 = CARTESIAN_POINT ( 'NONE',  ( 21.15647192244426100, 13.03112609140304000, 3.149999999999998100 ) ) ;
#13 =( LENGTH_UNIT ( ) NAMED_UNIT ( * ) SI_UNIT ( .MILLI., .METRE. ) );
#14 = AXIS2_PLACEMENT_3D ( 'NONE', #17, #108, #123 ) ;
#15 =( NAMED_UNIT ( * ) PLANE_ANGLE_UNIT ( ) SI_UNIT ( $, .RADIAN. ) );
#16 = VERTEX_POINT ( 'NONE', #63 ) ;
#17 = CARTESIAN_POINT ( 'NONE',  ( 24.64439452724362000, 13.03112609140304000, 0.0000000000000000000 ) ) ;
#18 = CARTESIAN_POINT ( 'NONE',  ( 23.70087548928661300, 13.03112609140304000, 0.0000000000000000000 ) ) ;
#19 = DIRECTION ( 'NONE',  ( 1.000000000000000000, 0.0000000000000000000, 0.0000000000000000000 ) ) ;
#20 = FILL_AREA_STYLE_COLOUR ( '', #47 ) ;
#21 =( GEOMETRIC_REPRESENTATION_CONTEXT ( 3 ) GLOBAL_UNCERTAINTY_ASSIGNED_CONTEXT ( ( #103 ) ) GLOBAL_UNIT_ASSIGNED_CONTEXT ( ( #157, #186, #54 ) ) REPRESENTATION_CONTEXT ( 'NONE', 'WORKASPACE' ) );
#22 = ORIENTED_EDGE ( 'NONE', *, *, #116, .T. ) ;
#23 = ADVANCED_FACE ( 'NONE', ( #43 ), #111, .F. ) ;
#24 = FACE_OUTER_BOUND ( 'NONE', #174, .T. ) ;
#25 = LINE ( 'NONE', #30, #183 ) ;
#26 = DIRECTION ( 'NONE',  ( 0.0000000000000000000, 0.0000000000000000000, 1.000000000000000000 ) ) ;
#27 = COLOUR_RGB ( '',1.000000000000000000, 1.000000000000000000, 1.000000000000000000 ) ;
#28 = DIRECTION ( 'NONE',  ( 0.0000000000000000000, 0.0000000000000000000, 1.000000000000000000 ) ) ;
#29 = UNCERTAINTY_MEASURE_WITH_UNIT (LENGTH_MEASURE( 1.000000000000000100E-005 ), #56, 'distance_accuracy_value', 'NONE');
#30 = CARTESIAN_POINT ( 'NONE',  ( 21.15647192244426100, 13.03112609140304000, -3.149999999999998100 ) ) ;
#31 = DIRECTION ( 'NONE',  ( 0.0000000000000000000, -1.000000000000000000, -1.224646799147353200E-016 ) ) ;
#32 = CARTESIAN_POINT ( 'NONE',  ( 24.64439452724362000, 13.03112609140304000, 0.0000000000000000000 ) ) ;
#33 = SURFACE_SIDE_STYLE ('',( #125 ) ) ;
#34 = CARTESIAN_POINT ( 'NONE',  ( 29.43087548928661300, 13.03112609140304000, 0.0000000000000000000 ) ) ;
#35 = ORIENTED_EDGE ( 'NONE', *, *, #148, .F. ) ;
#36 = VECTOR ( 'NONE', #76, 1000.000000000000000 ) ;
#37 = ORIENTED_EDGE ( 'NONE', *, *, #79, .F. ) ;
#38 =( GEOMETRIC_REPRESENTATION_CONTEXT ( 3 ) GLOBAL_UNCERTAINTY_ASSIGNED_CONTEXT ( ( #101 ) ) GLOBAL_UNIT_ASSIGNED_CONTEXT ( ( #13, #15, #78 ) ) REPRESENTATION_CONTEXT ( 'NONE', 'WORKASPACE' ) );
#39 = CIRCLE ( 'NONE', #14, 3.149999999999998100 ) ;
#40 = DIRECTION ( 'NONE',  ( -1.000000000000000000, -0.0000000000000000000, -0.0000000000000000000 ) ) ;
#41 = VERTEX_POINT ( 'NONE', #182 ) ;
#42 = DIRECTION ( 'NONE',  ( 0.0000000000000000000, 0.0000000000000000000, 1.000000000000000000 ) ) ;
#43 = FACE_OUTER_BOUND ( 'NONE', #8, .T. ) ;
#44 = DIRECTION ( 'NONE',  ( 0.0000000000000000000, -1.000000000000000000, 0.0000000000000000000 ) ) ;
#45 = CARTESIAN_POINT ( 'NONE',  ( 24.64439452724362000, 9.881126091403041700, 0.0000000000000000000 ) ) ;
#46 = APPLICATION_CONTEXT ( 'automotive_design' ) ;
#47 = COLOUR_RGB ( '',1.000000000000000000, 1.000000000000000000, 1.000000000000000000 ) ;
#48 = ORIENTED_EDGE ( 'NONE', *, *, #60, .F. ) ;
#49 = EDGE_CURVE ( 'NONE', #113, #163, #25, .T. ) ;
#50 = AXIS2_PLACEMENT_3D ( 'NONE', #152, #42, #44 ) ;
#51 = ORIENTED_EDGE ( 'NONE', *, *, #79, .T. ) ;
#52 = CARTESIAN_POINT ( 'NONE',  ( 21.15647192244426100, 13.03112609140304000, 0.0000000000000000000 ) ) ;
#53 = SURFACE_SIDE_STYLE ('',( #59 ) ) ;
#54 =( NAMED_UNIT ( * ) SI_UNIT ( $, .STERADIAN. ) SOLID_ANGLE_UNIT ( ) );
#55 = PRESENTATION_STYLE_ASSIGNMENT (( #181 ) ) ;
#56 =( LENGTH_UNIT ( ) NAMED_UNIT ( * ) SI_UNIT ( .MILLI., .METRE. ) );
#57 = SURFACE_STYLE_USAGE ( .BOTH. , #33 ) ;
#58 = PRODUCT_CONTEXT ( 'NONE', #46, 'mechanical' ) ;
#59 = SURFACE_STYLE_FILL_AREA ( #80 ) ;
#60 = EDGE_CURVE ( 'NONE', #16, #128, #70, .T. ) ;
#61 = PRODUCT_DEFINITION_SHAPE ( 'NONE', 'NONE',  #93 ) ;
#62 = AXIS2_PLACEMENT_3D ( 'NONE', #139, #95, #19 ) ;
#63 = CARTESIAN_POINT ( 'NONE',  ( 24.64439452724362000, 13.03112609140304000, 3.149999999999998100 ) ) ;
#64 = DIRECTION ( 'NONE',  ( 0.0000000000000000000, 0.0000000000000000000, 1.000000000000000000 ) ) ;
#65 = MECHANICAL_DESIGN_GEOMETRIC_PRESENTATION_REPRESENTATION (  '', ( #110 ), #21 ) ;
#66 = DIRECTION ( 'NONE',  ( -1.000000000000000000, -0.0000000000000000000, -0.0000000000000000000 ) ) ;
#67 = EDGE_LOOP ( 'NONE', ( #37, #72, #1, #121 ) ) ;
#68 = CARTESIAN_POINT ( 'NONE',  ( 22.20087548928661300, 13.03112609140304000, 3.149999999999998100 ) ) ;
#69 = DIRECTION ( 'NONE',  ( 0.0000000000000000000, 0.0000000000000000000, 1.000000000000000000 ) ) ;
#70 = LINE ( 'NONE', #12, #36 ) ;
#71 = CARTESIAN_POINT ( 'NONE',  ( 22.20087548928661300, 13.03112609140304000, 0.0000000000000000000 ) ) ;
#72 = ORIENTED_EDGE ( 'NONE', *, *, #122, .F. ) ;
#73 = FACE_OUTER_BOUND ( 'NONE', #100, .T. ) ;
#74 = AXIS2_PLACEMENT_3D ( 'NONE', #85, #66, #154 ) ;
#75 = ORIENTED_EDGE ( 'NONE', *, *, #137, .T. ) ;
#76 = DIRECTION ( 'NONE',  ( -1.000000000000000000, -0.0000000000000000000, -0.0000000000000000000 ) ) ;
#77 = CLOSED_SHELL ( 'NONE', ( #4, #23, #145, #99, #176 ) ) ;
#78 =( NAMED_UNIT ( * ) SI_UNIT ( $, .STERADIAN. ) SOLID_ANGLE_UNIT ( ) );
#79 = EDGE_CURVE ( 'NONE', #41, #115, #90, .T. ) ;
#80 = FILL_AREA_STYLE ('',( #164 ) ) ;
#81 = CARTESIAN_POINT ( 'NONE',  ( 29.43087548928661300, 13.03112609140304000, 0.0000000000000000000 ) ) ;
#82 = DIRECTION ( 'NONE',  ( 0.0000000000000000000, 0.0000000000000000000, 1.000000000000000000 ) ) ;
#83 = SPHERICAL_SURFACE ( 'NONE', #119, 5.729999999999999500 ) ;
#84 =( NAMED_UNIT ( * ) PLANE_ANGLE_UNIT ( ) SI_UNIT ( $, .RADIAN. ) );
#85 = CARTESIAN_POINT ( 'NONE',  ( 24.64439452724362000, 13.03112609140304000, 0.0000000000000000000 ) ) ;
#86 = APPLICATION_CONTEXT ( 'automotive_design' ) ;
#87 = AXIS2_PLACEMENT_3D ( 'NONE', #151, #132, #28 ) ;
#88 = SHAPE_DEFINITION_REPRESENTATION ( #61, #7 ) ;
#89 = AXIS2_PLACEMENT_3D ( 'NONE', #171, #124, #166 ) ;
#90 = CIRCLE ( 'NONE', #160, 5.729999999999999500 ) ;
#91 = CIRCLE ( 'NONE', #127, 5.729999999999998600 ) ;
#92 = DIRECTION ( 'NONE',  ( 0.0000000000000000000, 0.0000000000000000000, -1.000000000000000000 ) ) ;
#93 = PRODUCT_DEFINITION ( 'Î´Öª', '', #180, #143 ) ;
#94 = DIRECTION ( 'NONE',  ( 0.0000000000000000000, 0.0000000000000000000, 1.000000000000000000 ) ) ;
#95 = DIRECTION ( 'NONE',  ( 0.0000000000000000000, 0.0000000000000000000, 1.000000000000000000 ) ) ;
#96 = STYLED_ITEM ( 'NONE', ( #55 ), #9 ) ;
#97 = CARTESIAN_POINT ( 'NONE',  ( 24.64439452724362000, 13.03112609140304000, -3.149999999999998100 ) ) ;
#98 = ORIENTED_EDGE ( 'NONE', *, *, #122, .T. ) ;
#99 = ADVANCED_FACE ( 'NONE', ( #24 ), #3, .T. ) ;
#100 = EDGE_LOOP ( 'NONE', ( #156, #75 ) ) ;
#101 = UNCERTAINTY_MEASURE_WITH_UNIT (LENGTH_MEASURE( 1.000000000000000100E-005 ), #13, 'distance_accuracy_value', 'NONE');
#102 = AXIS2_PLACEMENT_3D ( 'NONE', #52, #40, #26 ) ;
#103 = UNCERTAINTY_MEASURE_WITH_UNIT (LENGTH_MEASURE( 1.000000000000000100E-005 ), #157, 'distance_accuracy_value', 'NONE');
#104 = DIRECTION ( 'NONE',  ( -1.000000000000000000, 0.0000000000000000000, 0.0000000000000000000 ) ) ;
#105 = CIRCLE ( 'NONE', #173, 3.149999999999998100 ) ;
#106 = ORIENTED_EDGE ( 'NONE', *, *, #49, .F. ) ;
#107 = CIRCLE ( 'NONE', #87, 3.149999999999998100 ) ;
#108 = DIRECTION ( 'NONE',  ( -1.000000000000000000, -0.0000000000000000000, -0.0000000000000000000 ) ) ;
#109 = DIRECTION ( 'NONE',  ( 0.0000000000000000000, 0.0000000000000000000, -1.000000000000000000 ) ) ;
#110 = STYLED_ITEM ( 'NONE', ( #141 ), #7 ) ;
#111 = SPHERICAL_SURFACE ( 'NONE', #50, 5.729999999999999500 ) ;
#112 = DIRECTION ( 'NONE',  ( 1.000000000000000000, 0.0000000000000000000, 0.0000000000000000000 ) ) ;
#113 = VERTEX_POINT ( 'NONE', #97 ) ;
#114 = AXIS2_PLACEMENT_3D ( 'NONE', #138, #155, #69 ) ;
#115 = VERTEX_POINT ( 'NONE', #18 ) ;
#116 = EDGE_CURVE ( 'NONE', #142, #16, #39, .T. ) ;
#117 = PRODUCT_RELATED_PRODUCT_CATEGORY ( 'part', '', ( #10 ) ) ;
#118 = ORIENTED_EDGE ( 'NONE', *, *, #168, .T. ) ;
#119 = AXIS2_PLACEMENT_3D ( 'NONE', #34, #82, #136 ) ;
#120 = CARTESIAN_POINT ( 'NONE',  ( 29.43087548928661300, 13.03112609140304000, 0.0000000000000000000 ) ) ;
#121 = ORIENTED_EDGE ( 'NONE', *, *, #5, .T. ) ;
#122 = EDGE_CURVE ( 'NONE', #16, #41, #178, .T. ) ;
#123 = DIRECTION ( 'NONE',  ( 0.0000000000000000000, 0.0000000000000000000, 1.000000000000000000 ) ) ;
#124 = DIRECTION ( 'NONE',  ( -1.000000000000000000, -0.0000000000000000000, -0.0000000000000000000 ) ) ;
#125 = SURFACE_STYLE_FILL_AREA ( #140 ) ;
#126 = PLANE ( 'NONE',  #159 ) ;
#127 = AXIS2_PLACEMENT_3D ( 'NONE', #81, #92, #104 ) ;
#128 = VERTEX_POINT ( 'NONE', #68 ) ;
#129 = DIRECTION ( 'NONE',  ( 0.0000000000000000000, -1.224646799147353200E-016, 1.000000000000000000 ) ) ;
#130 = AXIS2_PLACEMENT_3D ( 'NONE', #162, #165, #64 ) ;
#131 = FACE_OUTER_BOUND ( 'NONE', #146, .T. ) ;
#132 = DIRECTION ( 'NONE',  ( -1.000000000000000000, -0.0000000000000000000, -0.0000000000000000000 ) ) ;
#133 =( NAMED_UNIT ( * ) SI_UNIT ( $, .STERADIAN. ) SOLID_ANGLE_UNIT ( ) );
#134 = CIRCLE ( 'NONE', #114, 3.149999999999998100 ) ;
#135 = ORIENTED_EDGE ( 'NONE', *, *, #60, .T. ) ;
#136 = DIRECTION ( 'NONE',  ( 0.0000000000000000000, -1.000000000000000000, 0.0000000000000000000 ) ) ;
#137 = EDGE_CURVE ( 'NONE', #163, #128, #134, .T. ) ;
#138 = CARTESIAN_POINT ( 'NONE',  ( 22.20087548928661300, 13.03112609140304000, 0.0000000000000000000 ) ) ;
#139 = CARTESIAN_POINT ( 'NONE',  ( 0.0000000000000000000, 0.0000000000000000000, 0.0000000000000000000 ) ) ;
#140 = FILL_AREA_STYLE ('',( #20 ) ) ;
#141 = PRESENTATION_STYLE_ASSIGNMENT (( #57 ) ) ;
#142 = VERTEX_POINT ( 'NONE', #45 ) ;
#143 = PRODUCT_DEFINITION_CONTEXT ( 'detailed design', #86, 'design' ) ;
#144 = ORIENTED_EDGE ( 'NONE', *, *, #49, .T. ) ;
#145 = ADVANCED_FACE ( 'NONE', ( #11 ), #83, .F. ) ;
#146 = EDGE_LOOP ( 'NONE', ( #118, #144, #177, #48, #98 ) ) ;
#147 = PRESENTATION_LAYER_ASSIGNMENT (  '', '', ( #96 ) ) ;
#148 = EDGE_CURVE ( 'NONE', #113, #142, #105, .T. ) ;
#149 = DIRECTION ( 'NONE',  ( -1.000000000000000000, -0.0000000000000000000, -0.0000000000000000000 ) ) ;
#150 = ORIENTED_EDGE ( 'NONE', *, *, #5, .F. ) ;
#151 = CARTESIAN_POINT ( 'NONE',  ( 22.20087548928661300, 13.03112609140304000, 0.0000000000000000000 ) ) ;
#152 = CARTESIAN_POINT ( 'NONE',  ( 29.43087548928661300, 13.03112609140304000, 0.0000000000000000000 ) ) ;
#153 = CIRCLE ( 'NONE', #89, 3.149999999999998100 ) ;
#154 = DIRECTION ( 'NONE',  ( 0.0000000000000000000, 0.0000000000000000000, 1.000000000000000000 ) ) ;
#155 = DIRECTION ( 'NONE',  ( -1.000000000000000000, -0.0000000000000000000, -0.0000000000000000000 ) ) ;
#156 = ORIENTED_EDGE ( 'NONE', *, *, #2, .T. ) ;
#157 =( LENGTH_UNIT ( ) NAMED_UNIT ( * ) SI_UNIT ( .MILLI., .METRE. ) );
#158 = MECHANICAL_DESIGN_GEOMETRIC_PRESENTATION_REPRESENTATION (  '', ( #96 ), #38 ) ;
#159 = AXIS2_PLACEMENT_3D ( 'NONE', #71, #112, #109 ) ;
#160 = AXIS2_PLACEMENT_3D ( 'NONE', #120, #129, #31 ) ;
#161 =( GEOMETRIC_REPRESENTATION_CONTEXT ( 3 ) GLOBAL_UNCERTAINTY_ASSIGNED_CONTEXT ( ( #29 ) ) GLOBAL_UNIT_ASSIGNED_CONTEXT ( ( #56, #84, #133 ) ) REPRESENTATION_CONTEXT ( 'NONE', 'WORKASPACE' ) );
#162 = CARTESIAN_POINT ( 'NONE',  ( 21.15647192244426100, 13.03112609140304000, 0.0000000000000000000 ) ) ;
#163 = VERTEX_POINT ( 'NONE', #167 ) ;
#164 = FILL_AREA_STYLE_COLOUR ( '', #27 ) ;
#165 = DIRECTION ( 'NONE',  ( -1.000000000000000000, -0.0000000000000000000, -0.0000000000000000000 ) ) ;
#166 = DIRECTION ( 'NONE',  ( 0.0000000000000000000, 0.0000000000000000000, 1.000000000000000000 ) ) ;
#167 = CARTESIAN_POINT ( 'NONE',  ( 22.20087548928661300, 13.03112609140304000, -3.149999999999998100 ) ) ;
#168 = EDGE_CURVE ( 'NONE', #41, #113, #153, .T. ) ;
#169 = CYLINDRICAL_SURFACE ( 'NONE', #130, 3.149999999999998100 ) ;
#170 = APPLICATION_PROTOCOL_DEFINITION ( 'draft international standard', 'automotive_design', 1998, #46 ) ;
#171 = CARTESIAN_POINT ( 'NONE',  ( 24.64439452724362000, 13.03112609140304000, 0.0000000000000000000 ) ) ;
#172 = PRESENTATION_LAYER_ASSIGNMENT (  '', '', ( #110 ) ) ;
#173 = AXIS2_PLACEMENT_3D ( 'NONE', #32, #185, #94 ) ;
#174 = EDGE_LOOP ( 'NONE', ( #106, #6, #22, #135, #179 ) ) ;
#175 = APPLICATION_PROTOCOL_DEFINITION ( 'draft international standard', 'automotive_design', 1998, #86 ) ;
#176 = ADVANCED_FACE ( 'NONE', ( #73 ), #126, .F. ) ;
#177 = ORIENTED_EDGE ( 'NONE', *, *, #2, .F. ) ;
#178 = CIRCLE ( 'NONE', #74, 3.149999999999998100 ) ;
#179 = ORIENTED_EDGE ( 'NONE', *, *, #137, .F. ) ;
#180 = PRODUCT_DEFINITION_FORMATION_WITH_SPECIFIED_SOURCE ( 'ÈÎºÎ', '', #10, .NOT_KNOWN. ) ;
#181 = SURFACE_STYLE_USAGE ( .BOTH. , #53 ) ;
#182 = CARTESIAN_POINT ( 'NONE',  ( 24.64439452724362000, 16.18112609140303700, 3.857637417314160200E-016 ) ) ;
#183 = VECTOR ( 'NONE', #149, 1000.000000000000000 ) ;
#184 = ORIENTED_EDGE ( 'NONE', *, *, #168, .F. ) ;
#185 = DIRECTION ( 'NONE',  ( -1.000000000000000000, -0.0000000000000000000, -0.0000000000000000000 ) ) ;
#186 =( NAMED_UNIT ( * ) PLANE_ANGLE_UNIT ( ) SI_UNIT ( $, .RADIAN. ) );
ENDSEC;
END-ISO-10303-21;
