ISO-10303-21;
HEADER;
FILE_DESCRIPTION (( 'STEP AP214' ),
    '1' );
FILE_NAME ('120250.STEP',
    '2019-06-24T06:18:47',
    ( '' ),
    ( '' ),
    'SwSTEP 2.0',
    'SolidWorks 2016',
    '' );
FILE_SCHEMA (( 'AUTOMOTIVE_DESIGN' ));
ENDSEC;

DATA;
#1 = DIRECTION ( 'NONE',  ( -1.000000000000000000, 0.0000000000000000000, 0.0000000000000000000 ) ) ;
#2 = CARTESIAN_POINT ( 'NONE',  ( 47.12087542729425100, 13.03112609140305400, 0.0000000000000000000 ) ) ;
#3 = CARTESIAN_POINT ( 'NONE',  ( 21.15647192244426100, 13.03112609140304000, 0.0000000000000000000 ) ) ;
#4 = CYLINDRICAL_SURFACE ( 'NONE', #77, 3.150000000000001700 ) ;
#5 = FILL_AREA_STYLE_COLOUR ( '', #135 ) ;
#6 = VECTOR ( 'NONE', #58, 1000.000000000000000 ) ;
#7 = CIRCLE ( 'NONE', #13, 3.149999999999998100 ) ;
#8 = DIRECTION ( 'NONE',  ( 0.0000000000000000000, 0.0000000000000000000, 1.000000000000000000 ) ) ;
#9 = DIRECTION ( 'NONE',  ( -1.000000000000000000, -0.0000000000000000000, -0.0000000000000000000 ) ) ;
#10 = AXIS2_PLACEMENT_3D ( 'NONE', #166, #73, #74 ) ;
#11 = ADVANCED_FACE ( 'NONE', ( #47 ), #4, .T. ) ;
#12 = CIRCLE ( 'NONE', #155, 22.91999999999999500 ) ;
#13 = AXIS2_PLACEMENT_3D ( 'NONE', #83, #174, #81 ) ;
#14 = DIRECTION ( 'NONE',  ( 0.0000000000000000000, 0.0000000000000000000, 1.000000000000000000 ) ) ;
#15 = DIRECTION ( 'NONE',  ( 0.0000000000000000000, -1.000000000000000000, -1.224646799147353200E-016 ) ) ;
#16 = EDGE_LOOP ( 'NONE', ( #120, #93, #146, #75, #52 ) ) ;
#17 = CYLINDRICAL_SURFACE ( 'NONE', #76, 3.150000000000001700 ) ;
#18 =( NAMED_UNIT ( * ) PLANE_ANGLE_UNIT ( ) SI_UNIT ( $, .RADIAN. ) );
#19 = ORIENTED_EDGE ( 'NONE', *, *, #138, .F. ) ;
#20 = ORIENTED_EDGE ( 'NONE', *, *, #46, .F. ) ;
#21 = MECHANICAL_DESIGN_GEOMETRIC_PRESENTATION_REPRESENTATION (  '', ( #30 ), #177 ) ;
#22 = VERTEX_POINT ( 'NONE', #115 ) ;
#23 = CARTESIAN_POINT ( 'NONE',  ( 22.20087548928661300, 13.03112609140304000, 3.149999999999998100 ) ) ;
#24 = ORIENTED_EDGE ( 'NONE', *, *, #127, .T. ) ;
#25 = CARTESIAN_POINT ( 'NONE',  ( 22.20087548928661300, 13.03112609140304000, 0.0000000000000000000 ) ) ;
#26 = SHAPE_DEFINITION_REPRESENTATION ( #63, #123 ) ;
#27 = PLANE ( 'NONE',  #125 ) ;
#28 = CARTESIAN_POINT ( 'NONE',  ( 22.20087548928661300, 13.03112609140304000, 0.0000000000000000000 ) ) ;
#29 = VERTEX_POINT ( 'NONE', #48 ) ;
#30 = STYLED_ITEM ( 'NONE', ( #54 ), #94 ) ;
#31 = DIRECTION ( 'NONE',  ( -1.000000000000000000, -0.0000000000000000000, -0.0000000000000000000 ) ) ;
#32 = PRESENTATION_STYLE_ASSIGNMENT (( #153 ) ) ;
#33 = UNCERTAINTY_MEASURE_WITH_UNIT (LENGTH_MEASURE( 1.000000000000000100E-005 ), #69, 'distance_accuracy_value', 'NONE');
#34 = SURFACE_SIDE_STYLE ('',( #163 ) ) ;
#35 = CARTESIAN_POINT ( 'NONE',  ( 24.41836675534347700, 13.03112609140304000, 0.0000000000000000000 ) ) ;
#36 = PRESENTATION_LAYER_ASSIGNMENT (  '', '', ( #30 ) ) ;
#37 = SPHERICAL_SURFACE ( 'NONE', #113, 22.91999999999999500 ) ;
#38 = ORIENTED_EDGE ( 'NONE', *, *, #157, .T. ) ;
#39 =( GEOMETRIC_REPRESENTATION_CONTEXT ( 3 ) GLOBAL_UNCERTAINTY_ASSIGNED_CONTEXT ( ( #79 ) ) GLOBAL_UNIT_ASSIGNED_CONTEXT ( ( #124, #140, #57 ) ) REPRESENTATION_CONTEXT ( 'NONE', 'WORKASPACE' ) );
#40 = VERTEX_POINT ( 'NONE', #23 ) ;
#41 = CIRCLE ( 'NONE', #185, 3.149999999999998100 ) ;
#42 = ORIENTED_EDGE ( 'NONE', *, *, #152, .F. ) ;
#43 = FILL_AREA_STYLE_COLOUR ( '', #45 ) ;
#44 = UNCERTAINTY_MEASURE_WITH_UNIT (LENGTH_MEASURE( 1.000000000000000100E-005 ), #72, 'distance_accuracy_value', 'NONE');
#45 = COLOUR_RGB ( '',1.000000000000000000, 1.000000000000000000, 1.000000000000000000 ) ;
#46 = EDGE_CURVE ( 'NONE', #61, #40, #41, .T. ) ;
#47 = FACE_OUTER_BOUND ( 'NONE', #16, .T. ) ;
#48 = CARTESIAN_POINT ( 'NONE',  ( 24.20087542729425300, 13.03112609140305300, 0.0000000000000000000 ) ) ;
#49 = ADVANCED_FACE ( 'NONE', ( #159 ), #37, .F. ) ;
#50 = AXIS2_PLACEMENT_3D ( 'NONE', #132, #98, #15 ) ;
#51 = CIRCLE ( 'NONE', #99, 3.150000000000005200 ) ;
#52 = ORIENTED_EDGE ( 'NONE', *, *, #96, .T. ) ;
#53 = CARTESIAN_POINT ( 'NONE',  ( 22.20087548928661300, 13.03112609140304000, -3.149999999999998100 ) ) ;
#54 = PRESENTATION_STYLE_ASSIGNMENT (( #84 ) ) ;
#55 = DIRECTION ( 'NONE',  ( 0.0000000000000000000, 0.0000000000000000000, -1.000000000000000000 ) ) ;
#56 = AXIS2_PLACEMENT_3D ( 'NONE', #100, #31, #86 ) ;
#57 =( NAMED_UNIT ( * ) SI_UNIT ( $, .STERADIAN. ) SOLID_ANGLE_UNIT ( ) );
#58 = DIRECTION ( 'NONE',  ( -1.000000000000000000, -0.0000000000000000000, -0.0000000000000000000 ) ) ;
#59 = DIRECTION ( 'NONE',  ( 0.0000000000000000000, 0.0000000000000000000, 1.000000000000000000 ) ) ;
#60 = CIRCLE ( 'NONE', #56, 3.150000000000005200 ) ;
#61 = VERTEX_POINT ( 'NONE', #53 ) ;
#62 = EDGE_LOOP ( 'NONE', ( #160, #168, #142, #38, #20 ) ) ;
#63 = PRODUCT_DEFINITION_SHAPE ( 'NONE', 'NONE',  #65 ) ;
#64 = ADVANCED_FACE ( 'NONE', ( #71 ), #27, .F. ) ;
#65 = PRODUCT_DEFINITION ( 'Î´Öª', '', #87, #170 ) ;
#66 = CARTESIAN_POINT ( 'NONE',  ( 21.15647192244426100, 13.03112609140304000, 3.150000000000001700 ) ) ;
#67 = DIRECTION ( 'NONE',  ( 0.0000000000000000000, 0.0000000000000000000, 1.000000000000000000 ) ) ;
#68 = VERTEX_POINT ( 'NONE', #158 ) ;
#69 =( LENGTH_UNIT ( ) NAMED_UNIT ( * ) SI_UNIT ( .MILLI., .METRE. ) );
#70 = PRODUCT ( '120250', '120250', '', ( #88 ) ) ;
#71 = FACE_OUTER_BOUND ( 'NONE', #169, .T. ) ;
#72 =( LENGTH_UNIT ( ) NAMED_UNIT ( * ) SI_UNIT ( .MILLI., .METRE. ) );
#73 = DIRECTION ( 'NONE',  ( 0.0000000000000000000, 0.0000000000000000000, 1.000000000000000000 ) ) ;
#74 = DIRECTION ( 'NONE',  ( 1.000000000000000000, 0.0000000000000000000, 0.0000000000000000000 ) ) ;
#75 = ORIENTED_EDGE ( 'NONE', *, *, #157, .F. ) ;
#76 = AXIS2_PLACEMENT_3D ( 'NONE', #3, #130, #67 ) ;
#77 = AXIS2_PLACEMENT_3D ( 'NONE', #128, #9, #8 ) ;
#78 = ORIENTED_EDGE ( 'NONE', *, *, #116, .F. ) ;
#79 = UNCERTAINTY_MEASURE_WITH_UNIT (LENGTH_MEASURE( 1.000000000000000100E-005 ), #124, 'distance_accuracy_value', 'NONE');
#80 = EDGE_CURVE ( 'NONE', #143, #29, #12, .T. ) ;
#81 = DIRECTION ( 'NONE',  ( 0.0000000000000000000, 0.0000000000000000000, 1.000000000000000000 ) ) ;
#82 = EDGE_CURVE ( 'NONE', #68, #61, #126, .T. ) ;
#83 = CARTESIAN_POINT ( 'NONE',  ( 22.20087548928661300, 13.03112609140304000, 0.0000000000000000000 ) ) ;
#84 = SURFACE_STYLE_USAGE ( .BOTH. , #181 ) ;
#85 = DIRECTION ( 'NONE',  ( 0.0000000000000000000, -1.000000000000000000, 0.0000000000000000000 ) ) ;
#86 = DIRECTION ( 'NONE',  ( 0.0000000000000000000, 0.0000000000000000000, 1.000000000000000000 ) ) ;
#87 = PRODUCT_DEFINITION_FORMATION_WITH_SPECIFIED_SOURCE ( 'ÈÎºÎ', '', #70, .NOT_KNOWN. ) ;
#88 = PRODUCT_CONTEXT ( 'NONE', #105, 'mechanical' ) ;
#89 =( NAMED_UNIT ( * ) PLANE_ANGLE_UNIT ( ) SI_UNIT ( $, .RADIAN. ) );
#90 = AXIS2_PLACEMENT_3D ( 'NONE', #162, #134, #59 ) ;
#91 = LINE ( 'NONE', #66, #6 ) ;
#92 = CLOSED_SHELL ( 'NONE', ( #11, #49, #110, #129, #64 ) ) ;
#93 = ORIENTED_EDGE ( 'NONE', *, *, #82, .T. ) ;
#94 = MANIFOLD_SOLID_BREP ( 'Ðý×ª1', #92 ) ;
#95 = CIRCLE ( 'NONE', #131, 3.150000000000005200 ) ;
#96 = EDGE_CURVE ( 'NONE', #173, #22, #60, .T. ) ;
#97 = DIRECTION ( 'NONE',  ( -1.000000000000000000, -0.0000000000000000000, -0.0000000000000000000 ) ) ;
#98 = DIRECTION ( 'NONE',  ( 0.0000000000000000000, -1.224646799147353200E-016, 1.000000000000000000 ) ) ;
#99 = AXIS2_PLACEMENT_3D ( 'NONE', #35, #139, #154 ) ;
#100 = CARTESIAN_POINT ( 'NONE',  ( 24.41836675534347700, 13.03112609140304000, 0.0000000000000000000 ) ) ;
#101 = ORIENTED_EDGE ( 'NONE', *, *, #96, .F. ) ;
#102 = DIRECTION ( 'NONE',  ( -1.000000000000000000, -0.0000000000000000000, -0.0000000000000000000 ) ) ;
#103 = ORIENTED_EDGE ( 'NONE', *, *, #46, .T. ) ;
#104 =( NAMED_UNIT ( * ) SI_UNIT ( $, .STERADIAN. ) SOLID_ANGLE_UNIT ( ) );
#105 = APPLICATION_CONTEXT ( 'automotive_design' ) ;
#106 = ORIENTED_EDGE ( 'NONE', *, *, #80, .F. ) ;
#107 = DIRECTION ( 'NONE',  ( -1.000000000000000000, -0.0000000000000000000, -0.0000000000000000000 ) ) ;
#108 = FILL_AREA_STYLE ('',( #5 ) ) ;
#109 = EDGE_LOOP ( 'NONE', ( #111, #136, #106, #19 ) ) ;
#110 = ADVANCED_FACE ( 'NONE', ( #172 ), #141, .F. ) ;
#111 = ORIENTED_EDGE ( 'NONE', *, *, #148, .F. ) ;
#112 = PRODUCT_RELATED_PRODUCT_CATEGORY ( 'part', '', ( #70 ) ) ;
#113 = AXIS2_PLACEMENT_3D ( 'NONE', #147, #114, #85 ) ;
#114 = DIRECTION ( 'NONE',  ( 0.0000000000000000000, 0.0000000000000000000, 1.000000000000000000 ) ) ;
#115 = CARTESIAN_POINT ( 'NONE',  ( 24.41836675534347700, 16.18112609140304400, 3.857637417314151300E-016 ) ) ;
#116 = EDGE_CURVE ( 'NONE', #22, #29, #165, .T. ) ;
#117 = DIRECTION ( 'NONE',  ( 0.0000000000000000000, 0.0000000000000000000, 1.000000000000000000 ) ) ;
#118 = DIRECTION ( 'NONE',  ( 0.0000000000000000000, -1.000000000000000000, 0.0000000000000000000 ) ) ;
#119 =( NAMED_UNIT ( * ) SI_UNIT ( $, .STERADIAN. ) SOLID_ANGLE_UNIT ( ) );
#120 = ORIENTED_EDGE ( 'NONE', *, *, #148, .T. ) ;
#121 = SURFACE_STYLE_FILL_AREA ( #178 ) ;
#122 = CARTESIAN_POINT ( 'NONE',  ( 24.41836675534347700, 13.03112609140304000, 0.0000000000000000000 ) ) ;
#123 = ADVANCED_BREP_SHAPE_REPRESENTATION ( '120250', ( #94, #10 ), #145 ) ;
#124 =( LENGTH_UNIT ( ) NAMED_UNIT ( * ) SI_UNIT ( .MILLI., .METRE. ) );
#125 = AXIS2_PLACEMENT_3D ( 'NONE', #28, #179, #55 ) ;
#126 = LINE ( 'NONE', #149, #156 ) ;
#127 = EDGE_CURVE ( 'NONE', #40, #61, #7, .T. ) ;
#128 = CARTESIAN_POINT ( 'NONE',  ( 21.15647192244426100, 13.03112609140304000, 0.0000000000000000000 ) ) ;
#129 = ADVANCED_FACE ( 'NONE', ( #180 ), #17, .T. ) ;
#130 = DIRECTION ( 'NONE',  ( -1.000000000000000000, -0.0000000000000000000, -0.0000000000000000000 ) ) ;
#131 = AXIS2_PLACEMENT_3D ( 'NONE', #122, #107, #151 ) ;
#132 = CARTESIAN_POINT ( 'NONE',  ( 47.12087542729425100, 13.03112609140305400, 0.0000000000000000000 ) ) ;
#133 = CARTESIAN_POINT ( 'NONE',  ( 24.41836675534347700, 9.881126091403048800, 0.0000000000000000000 ) ) ;
#134 = DIRECTION ( 'NONE',  ( -1.000000000000000000, -0.0000000000000000000, -0.0000000000000000000 ) ) ;
#135 = COLOUR_RGB ( '',1.000000000000000000, 1.000000000000000000, 1.000000000000000000 ) ;
#136 = ORIENTED_EDGE ( 'NONE', *, *, #116, .T. ) ;
#137 = APPLICATION_CONTEXT ( 'automotive_design' ) ;
#138 = EDGE_CURVE ( 'NONE', #68, #143, #144, .T. ) ;
#139 = DIRECTION ( 'NONE',  ( -1.000000000000000000, -0.0000000000000000000, -0.0000000000000000000 ) ) ;
#140 =( NAMED_UNIT ( * ) PLANE_ANGLE_UNIT ( ) SI_UNIT ( $, .RADIAN. ) );
#141 = SPHERICAL_SURFACE ( 'NONE', #164, 22.91999999999999500 ) ;
#142 = ORIENTED_EDGE ( 'NONE', *, *, #152, .T. ) ;
#143 = VERTEX_POINT ( 'NONE', #133 ) ;
#144 = CIRCLE ( 'NONE', #90, 3.150000000000005200 ) ;
#145 =( GEOMETRIC_REPRESENTATION_CONTEXT ( 3 ) GLOBAL_UNCERTAINTY_ASSIGNED_CONTEXT ( ( #44 ) ) GLOBAL_UNIT_ASSIGNED_CONTEXT ( ( #72, #89, #104 ) ) REPRESENTATION_CONTEXT ( 'NONE', 'WORKASPACE' ) );
#146 = ORIENTED_EDGE ( 'NONE', *, *, #127, .F. ) ;
#147 = CARTESIAN_POINT ( 'NONE',  ( 47.12087542729425100, 13.03112609140305400, 0.0000000000000000000 ) ) ;
#148 = EDGE_CURVE ( 'NONE', #22, #68, #51, .T. ) ;
#149 = CARTESIAN_POINT ( 'NONE',  ( 21.15647192244426100, 13.03112609140304000, -3.150000000000001700 ) ) ;
#150 = DIRECTION ( 'NONE',  ( 0.0000000000000000000, 0.0000000000000000000, -1.000000000000000000 ) ) ;
#151 = DIRECTION ( 'NONE',  ( 0.0000000000000000000, 0.0000000000000000000, 1.000000000000000000 ) ) ;
#152 = EDGE_CURVE ( 'NONE', #143, #173, #95, .T. ) ;
#153 = SURFACE_STYLE_USAGE ( .BOTH. , #34 ) ;
#154 = DIRECTION ( 'NONE',  ( 0.0000000000000000000, 0.0000000000000000000, 1.000000000000000000 ) ) ;
#155 = AXIS2_PLACEMENT_3D ( 'NONE', #176, #150, #1 ) ;
#156 = VECTOR ( 'NONE', #97, 1000.000000000000000 ) ;
#157 = EDGE_CURVE ( 'NONE', #173, #40, #91, .T. ) ;
#158 = CARTESIAN_POINT ( 'NONE',  ( 24.41836675534347700, 13.03112609140304000, -3.150000000000005200 ) ) ;
#159 = FACE_OUTER_BOUND ( 'NONE', #109, .T. ) ;
#160 = ORIENTED_EDGE ( 'NONE', *, *, #82, .F. ) ;
#161 = EDGE_LOOP ( 'NONE', ( #78, #101, #42, #175 ) ) ;
#162 = CARTESIAN_POINT ( 'NONE',  ( 24.41836675534347700, 13.03112609140304000, 0.0000000000000000000 ) ) ;
#163 = SURFACE_STYLE_FILL_AREA ( #108 ) ;
#164 = AXIS2_PLACEMENT_3D ( 'NONE', #2, #117, #118 ) ;
#165 = CIRCLE ( 'NONE', #50, 22.91999999999999500 ) ;
#166 = CARTESIAN_POINT ( 'NONE',  ( 0.0000000000000000000, 0.0000000000000000000, 0.0000000000000000000 ) ) ;
#167 = CARTESIAN_POINT ( 'NONE',  ( 24.41836675534347700, 13.03112609140304000, 3.150000000000005200 ) ) ;
#168 = ORIENTED_EDGE ( 'NONE', *, *, #138, .T. ) ;
#169 = EDGE_LOOP ( 'NONE', ( #24, #103 ) ) ;
#170 = PRODUCT_DEFINITION_CONTEXT ( 'detailed design', #137, 'design' ) ;
#171 = STYLED_ITEM ( 'NONE', ( #32 ), #123 ) ;
#172 = FACE_OUTER_BOUND ( 'NONE', #161, .T. ) ;
#173 = VERTEX_POINT ( 'NONE', #167 ) ;
#174 = DIRECTION ( 'NONE',  ( -1.000000000000000000, -0.0000000000000000000, -0.0000000000000000000 ) ) ;
#175 = ORIENTED_EDGE ( 'NONE', *, *, #80, .T. ) ;
#176 = CARTESIAN_POINT ( 'NONE',  ( 47.12087542729425100, 13.03112609140305400, 0.0000000000000000000 ) ) ;
#177 =( GEOMETRIC_REPRESENTATION_CONTEXT ( 3 ) GLOBAL_UNCERTAINTY_ASSIGNED_CONTEXT ( ( #33 ) ) GLOBAL_UNIT_ASSIGNED_CONTEXT ( ( #69, #18, #119 ) ) REPRESENTATION_CONTEXT ( 'NONE', 'WORKASPACE' ) );
#178 = FILL_AREA_STYLE ('',( #43 ) ) ;
#179 = DIRECTION ( 'NONE',  ( 1.000000000000000000, 0.0000000000000000000, 0.0000000000000000000 ) ) ;
#180 = FACE_OUTER_BOUND ( 'NONE', #62, .T. ) ;
#181 = SURFACE_SIDE_STYLE ('',( #121 ) ) ;
#182 = APPLICATION_PROTOCOL_DEFINITION ( 'draft international standard', 'automotive_design', 1998, #105 ) ;
#183 = APPLICATION_PROTOCOL_DEFINITION ( 'draft international standard', 'automotive_design', 1998, #137 ) ;
#184 = MECHANICAL_DESIGN_GEOMETRIC_PRESENTATION_REPRESENTATION (  '', ( #171 ), #39 ) ;
#185 = AXIS2_PLACEMENT_3D ( 'NONE', #25, #102, #14 ) ;
#186 = PRESENTATION_LAYER_ASSIGNMENT (  '', '', ( #171 ) ) ;
ENDSEC;
END-ISO-10303-21;
