ISO-10303-21;
HEADER;
FILE_DESCRIPTION (( 'STEP AP214' ),
    '1' );
FILE_NAME ('120261.STEP',
    '2019-06-25T02:48:32',
    ( '' ),
    ( '' ),
    'SwSTEP 2.0',
    'SolidWorks 2016',
    '' );
FILE_SCHEMA (( 'AUTOMOTIVE_DESIGN' ));
ENDSEC;

DATA;
#1 = ADVANCED_BREP_SHAPE_REPRESENTATION ( '120261', ( #140, #42 ), #91 ) ;
#2 = VECTOR ( 'NONE', #41, 1000.000000000000000 ) ;
#3 =( LENGTH_UNIT ( ) NAMED_UNIT ( * ) SI_UNIT ( .MILLI., .METRE. ) );
#4 = APPLICATION_CONTEXT ( 'automotive_design' ) ;
#5 = PRODUCT ( '120261', '120261', '', ( #177 ) ) ;
#6 = VECTOR ( 'NONE', #84, 1000.000000000000000 ) ;
#7 = AXIS2_PLACEMENT_3D ( 'NONE', #131, #148, #14 ) ;
#8 = EDGE_CURVE ( 'NONE', #132, #126, #147, .T. ) ;
#9 = DIRECTION ( 'NONE',  ( 0.0000000000000000000, 0.0000000000000000000, 1.000000000000000000 ) ) ;
#10 = DIRECTION ( 'NONE',  ( 0.0000000000000000000, -1.224646799147353200E-016, 1.000000000000000000 ) ) ;
#11 = CARTESIAN_POINT ( 'NONE',  ( 50.15090441117644800, 28.47759563463748100, 0.0000000000000000000 ) ) ;
#12 = FACE_OUTER_BOUND ( 'NONE', #63, .T. ) ;
#13 = DIRECTION ( 'NONE',  ( 0.0000000000000000000, 0.0000000000000000000, 1.000000000000000000 ) ) ;
#14 = DIRECTION ( 'NONE',  ( 0.0000000000000000000, 0.0000000000000000000, 1.000000000000000000 ) ) ;
#15 = FILL_AREA_STYLE ('',( #128 ) ) ;
#16 = SURFACE_STYLE_FILL_AREA ( #87 ) ;
#17 = AXIS2_PLACEMENT_3D ( 'NONE', #98, #34, #31 ) ;
#18 = SPHERICAL_SURFACE ( 'NONE', #105, 22.92000000000000200 ) ;
#19 = PRODUCT_DEFINITION ( 'Î´Öª', '', #37, #89 ) ;
#20 = ORIENTED_EDGE ( 'NONE', *, *, #180, .F. ) ;
#21 = PRODUCT_DEFINITION_SHAPE ( 'NONE', 'NONE',  #19 ) ;
#22 = DIRECTION ( 'NONE',  ( 0.0000000000000000000, -1.000000000000000000, -1.224646799147353200E-016 ) ) ;
#23 = EDGE_CURVE ( 'NONE', #38, #58, #54, .T. ) ;
#24 = DIRECTION ( 'NONE',  ( 0.0000000000000000000, 0.0000000000000000000, 1.000000000000000000 ) ) ;
#25 = SHAPE_DEFINITION_REPRESENTATION ( #21, #1 ) ;
#26 = DIRECTION ( 'NONE',  ( -1.000000000000000000, -0.0000000000000000000, -0.0000000000000000000 ) ) ;
#27 = ORIENTED_EDGE ( 'NONE', *, *, #88, .F. ) ;
#28 = FACE_OUTER_BOUND ( 'NONE', #178, .T. ) ;
#29 =( LENGTH_UNIT ( ) NAMED_UNIT ( * ) SI_UNIT ( .MILLI., .METRE. ) );
#30 = CARTESIAN_POINT ( 'NONE',  ( 47.75370850148247100, 28.47759563463748100, -6.350000000000001400 ) ) ;
#31 = DIRECTION ( 'NONE',  ( 0.0000000000000000000, 0.0000000000000000000, 1.000000000000000000 ) ) ;
#32 = COLOUR_RGB ( '',1.000000000000000000, 1.000000000000000000, 1.000000000000000000 ) ;
#33 = MECHANICAL_DESIGN_GEOMETRIC_PRESENTATION_REPRESENTATION (  '', ( #152 ), #156 ) ;
#34 = DIRECTION ( 'NONE',  ( -1.000000000000000000, -0.0000000000000000000, -0.0000000000000000000 ) ) ;
#35 = ORIENTED_EDGE ( 'NONE', *, *, #77, .F. ) ;
#36 = ORIENTED_EDGE ( 'NONE', *, *, #180, .T. ) ;
#37 = PRODUCT_DEFINITION_FORMATION_WITH_SPECIFIED_SOURCE ( 'ÈÎºÎ', '', #5, .NOT_KNOWN. ) ;
#38 = VERTEX_POINT ( 'NONE', #95 ) ;
#39 = PLANE ( 'NONE',  #47 ) ;
#40 = CARTESIAN_POINT ( 'NONE',  ( 47.75370850148247100, 28.47759563463748100, 0.0000000000000000000 ) ) ;
#41 = DIRECTION ( 'NONE',  ( -1.000000000000000000, -0.0000000000000000000, -0.0000000000000000000 ) ) ;
#42 = AXIS2_PLACEMENT_3D ( 'NONE', #175, #121, #45 ) ;
#43 = DIRECTION ( 'NONE',  ( 0.0000000000000000000, 0.0000000000000000000, 1.000000000000000000 ) ) ;
#44 = CARTESIAN_POINT ( 'NONE',  ( 50.15090441117644800, 28.47759563463748100, 0.0000000000000000000 ) ) ;
#45 = DIRECTION ( 'NONE',  ( 1.000000000000000000, 0.0000000000000000000, 0.0000000000000000000 ) ) ;
#46 = AXIS2_PLACEMENT_3D ( 'NONE', #81, #53, #24 ) ;
#47 = AXIS2_PLACEMENT_3D ( 'NONE', #51, #80, #145 ) ;
#48 = VERTEX_POINT ( 'NONE', #65 ) ;
#49 = SURFACE_STYLE_FILL_AREA ( #15 ) ;
#50 = FACE_OUTER_BOUND ( 'NONE', #164, .T. ) ;
#51 = CARTESIAN_POINT ( 'NONE',  ( 47.75370850148247100, 28.47759563463748100, 0.0000000000000000000 ) ) ;
#52 = UNCERTAINTY_MEASURE_WITH_UNIT (LENGTH_MEASURE( 1.000000000000000100E-005 ), #3, 'distance_accuracy_value', 'NONE');
#53 = DIRECTION ( 'NONE',  ( -1.000000000000000000, -0.0000000000000000000, -0.0000000000000000000 ) ) ;
#54 = CIRCLE ( 'NONE', #144, 22.92000000000000200 ) ;
#55 = DIRECTION ( 'NONE',  ( 0.0000000000000000000, 0.0000000000000000000, 1.000000000000000000 ) ) ;
#56 = APPLICATION_PROTOCOL_DEFINITION ( 'draft international standard', 'automotive_design', 1998, #86 ) ;
#57 = ORIENTED_EDGE ( 'NONE', *, *, #8, .F. ) ;
#58 = VERTEX_POINT ( 'NONE', #66 ) ;
#59 = CLOSED_SHELL ( 'NONE', ( #129, #143, #185, #73, #104 ) ) ;
#60 = CIRCLE ( 'NONE', #7, 6.350000000000008500 ) ;
#61 = ORIENTED_EDGE ( 'NONE', *, *, #134, .F. ) ;
#62 = EDGE_CURVE ( 'NONE', #126, #132, #92, .T. ) ;
#63 = EDGE_LOOP ( 'NONE', ( #153, #94, #57, #20, #141 ) ) ;
#64 = CYLINDRICAL_SURFACE ( 'NONE', #46, 6.350000000000005000 ) ;
#65 = CARTESIAN_POINT ( 'NONE',  ( 50.15090441117644800, 22.12759563463748000, 0.0000000000000000000 ) ) ;
#66 = CARTESIAN_POINT ( 'NONE',  ( 49.25370850148247800, 28.47759563463748100, 0.0000000000000000000 ) ) ;
#67 = EDGE_LOOP ( 'NONE', ( #35, #82, #151, #36, #76 ) ) ;
#68 = CIRCLE ( 'NONE', #79, 22.92000000000000200 ) ;
#69 = DIRECTION ( 'NONE',  ( 0.0000000000000000000, 0.0000000000000000000, 1.000000000000000000 ) ) ;
#70 = CARTESIAN_POINT ( 'NONE',  ( 50.15090441117644800, 28.47759563463748100, -6.350000000000007600 ) ) ;
#71 = CARTESIAN_POINT ( 'NONE',  ( 47.75370850148247100, 28.47759563463748100, 6.350000000000001400 ) ) ;
#72 = ORIENTED_EDGE ( 'NONE', *, *, #106, .F. ) ;
#73 = ADVANCED_FACE ( 'NONE', ( #171 ), #64, .T. ) ;
#74 =( NAMED_UNIT ( * ) PLANE_ANGLE_UNIT ( ) SI_UNIT ( $, .RADIAN. ) );
#75 = ORIENTED_EDGE ( 'NONE', *, *, #62, .T. ) ;
#76 = ORIENTED_EDGE ( 'NONE', *, *, #62, .F. ) ;
#77 = EDGE_CURVE ( 'NONE', #158, #126, #173, .T. ) ;
#78 = AXIS2_PLACEMENT_3D ( 'NONE', #162, #176, #55 ) ;
#79 = AXIS2_PLACEMENT_3D ( 'NONE', #113, #112, #170 ) ;
#80 = DIRECTION ( 'NONE',  ( 1.000000000000000000, 0.0000000000000000000, 0.0000000000000000000 ) ) ;
#81 = CARTESIAN_POINT ( 'NONE',  ( 44.78209190302423800, 28.47759563463748100, 0.0000000000000000000 ) ) ;
#82 = ORIENTED_EDGE ( 'NONE', *, *, #134, .T. ) ;
#83 = ORIENTED_EDGE ( 'NONE', *, *, #8, .T. ) ;
#84 = DIRECTION ( 'NONE',  ( -1.000000000000000000, -0.0000000000000000000, -0.0000000000000000000 ) ) ;
#85 = AXIS2_PLACEMENT_3D ( 'NONE', #44, #174, #43 ) ;
#86 = APPLICATION_CONTEXT ( 'automotive_design' ) ;
#87 = FILL_AREA_STYLE ('',( #161 ) ) ;
#88 = EDGE_CURVE ( 'NONE', #48, #58, #68, .T. ) ;
#89 = PRODUCT_DEFINITION_CONTEXT ( 'detailed design', #4, 'design' ) ;
#90 = CARTESIAN_POINT ( 'NONE',  ( 44.78209190302423800, 28.47759563463748100, 6.350000000000005000 ) ) ;
#91 =( GEOMETRIC_REPRESENTATION_CONTEXT ( 3 ) GLOBAL_UNCERTAINTY_ASSIGNED_CONTEXT ( ( #135 ) ) GLOBAL_UNIT_ASSIGNED_CONTEXT ( ( #29, #125, #160 ) ) REPRESENTATION_CONTEXT ( 'NONE', 'WORKASPACE' ) );
#92 = CIRCLE ( 'NONE', #136, 6.350000000000001400 ) ;
#93 =( NAMED_UNIT ( * ) SI_UNIT ( $, .STERADIAN. ) SOLID_ANGLE_UNIT ( ) );
#94 = ORIENTED_EDGE ( 'NONE', *, *, #77, .T. ) ;
#95 = CARTESIAN_POINT ( 'NONE',  ( 50.15090441117644800, 34.82759563463748300, 7.776507174585696100E-016 ) ) ;
#96 = DIRECTION ( 'NONE',  ( 0.0000000000000000000, 0.0000000000000000000, 1.000000000000000000 ) ) ;
#97 =( LENGTH_UNIT ( ) NAMED_UNIT ( * ) SI_UNIT ( .MILLI., .METRE. ) );
#98 = CARTESIAN_POINT ( 'NONE',  ( 44.78209190302423800, 28.47759563463748100, 0.0000000000000000000 ) ) ;
#99 = SURFACE_SIDE_STYLE ('',( #16 ) ) ;
#100 = DIRECTION ( 'NONE',  ( 0.0000000000000000000, 0.0000000000000000000, 1.000000000000000000 ) ) ;
#101 = FACE_OUTER_BOUND ( 'NONE', #167, .T. ) ;
#102 = CARTESIAN_POINT ( 'NONE',  ( 72.17370850148248000, 28.47759563463748100, 0.0000000000000000000 ) ) ;
#103 = PRESENTATION_STYLE_ASSIGNMENT (( #115 ) ) ;
#104 = ADVANCED_FACE ( 'NONE', ( #50 ), #39, .F. ) ;
#105 = AXIS2_PLACEMENT_3D ( 'NONE', #149, #69, #172 ) ;
#106 = EDGE_CURVE ( 'NONE', #38, #158, #60, .T. ) ;
#107 =( GEOMETRIC_REPRESENTATION_CONTEXT ( 3 ) GLOBAL_UNCERTAINTY_ASSIGNED_CONTEXT ( ( #52 ) ) GLOBAL_UNIT_ASSIGNED_CONTEXT ( ( #3, #74, #93 ) ) REPRESENTATION_CONTEXT ( 'NONE', 'WORKASPACE' ) );
#108 = ORIENTED_EDGE ( 'NONE', *, *, #184, .F. ) ;
#109 = CYLINDRICAL_SURFACE ( 'NONE', #17, 6.350000000000005000 ) ;
#110 = AXIS2_PLACEMENT_3D ( 'NONE', #102, #13, #127 ) ;
#111 = DIRECTION ( 'NONE',  ( -1.000000000000000000, -0.0000000000000000000, -0.0000000000000000000 ) ) ;
#112 = DIRECTION ( 'NONE',  ( 0.0000000000000000000, 0.0000000000000000000, -1.000000000000000000 ) ) ;
#113 = CARTESIAN_POINT ( 'NONE',  ( 72.17370850148248000, 28.47759563463748100, 0.0000000000000000000 ) ) ;
#114 =( NAMED_UNIT ( * ) SI_UNIT ( $, .STERADIAN. ) SOLID_ANGLE_UNIT ( ) );
#115 = SURFACE_STYLE_USAGE ( .BOTH. , #99 ) ;
#116 = EDGE_CURVE ( 'NONE', #48, #118, #123, .T. ) ;
#117 = DIRECTION ( 'NONE',  ( -1.000000000000000000, -0.0000000000000000000, -0.0000000000000000000 ) ) ;
#118 = VERTEX_POINT ( 'NONE', #130 ) ;
#119 = CIRCLE ( 'NONE', #78, 6.350000000000008500 ) ;
#120 = APPLICATION_PROTOCOL_DEFINITION ( 'draft international standard', 'automotive_design', 1998, #4 ) ;
#121 = DIRECTION ( 'NONE',  ( 0.0000000000000000000, 0.0000000000000000000, 1.000000000000000000 ) ) ;
#122 = ORIENTED_EDGE ( 'NONE', *, *, #116, .F. ) ;
#123 = CIRCLE ( 'NONE', #139, 6.350000000000008500 ) ;
#124 = CARTESIAN_POINT ( 'NONE',  ( 44.78209190302423800, 28.47759563463748100, -6.350000000000005000 ) ) ;
#125 =( NAMED_UNIT ( * ) PLANE_ANGLE_UNIT ( ) SI_UNIT ( $, .RADIAN. ) );
#126 = VERTEX_POINT ( 'NONE', #30 ) ;
#127 = DIRECTION ( 'NONE',  ( 0.0000000000000000000, -1.000000000000000000, 0.0000000000000000000 ) ) ;
#128 = FILL_AREA_STYLE_COLOUR ( '', #32 ) ;
#129 = ADVANCED_FACE ( 'NONE', ( #12 ), #109, .T. ) ;
#130 = CARTESIAN_POINT ( 'NONE',  ( 50.15090441117644800, 28.47759563463748100, 6.350000000000007600 ) ) ;
#131 = CARTESIAN_POINT ( 'NONE',  ( 50.15090441117644800, 28.47759563463748100, 0.0000000000000000000 ) ) ;
#132 = VERTEX_POINT ( 'NONE', #71 ) ;
#133 = PRESENTATION_STYLE_ASSIGNMENT (( #146 ) ) ;
#134 = EDGE_CURVE ( 'NONE', #158, #48, #159, .T. ) ;
#135 = UNCERTAINTY_MEASURE_WITH_UNIT (LENGTH_MEASURE( 1.000000000000000100E-005 ), #29, 'distance_accuracy_value', 'NONE');
#136 = AXIS2_PLACEMENT_3D ( 'NONE', #157, #26, #9 ) ;
#137 = SPHERICAL_SURFACE ( 'NONE', #110, 22.92000000000000200 ) ;
#138 = MECHANICAL_DESIGN_GEOMETRIC_PRESENTATION_REPRESENTATION (  '', ( #154 ), #107 ) ;
#139 = AXIS2_PLACEMENT_3D ( 'NONE', #11, #117, #100 ) ;
#140 = MANIFOLD_SOLID_BREP ( 'Ðý×ª1', #59 ) ;
#141 = ORIENTED_EDGE ( 'NONE', *, *, #184, .T. ) ;
#142 = SURFACE_SIDE_STYLE ('',( #49 ) ) ;
#143 = ADVANCED_FACE ( 'NONE', ( #101 ), #137, .F. ) ;
#144 = AXIS2_PLACEMENT_3D ( 'NONE', #181, #10, #22 ) ;
#145 = DIRECTION ( 'NONE',  ( 0.0000000000000000000, 0.0000000000000000000, -1.000000000000000000 ) ) ;
#146 = SURFACE_STYLE_USAGE ( .BOTH. , #142 ) ;
#147 = CIRCLE ( 'NONE', #169, 6.350000000000001400 ) ;
#148 = DIRECTION ( 'NONE',  ( -1.000000000000000000, -0.0000000000000000000, -0.0000000000000000000 ) ) ;
#149 = CARTESIAN_POINT ( 'NONE',  ( 72.17370850148248000, 28.47759563463748100, 0.0000000000000000000 ) ) ;
#150 = PRESENTATION_LAYER_ASSIGNMENT (  '', '', ( #154 ) ) ;
#151 = ORIENTED_EDGE ( 'NONE', *, *, #116, .T. ) ;
#152 = STYLED_ITEM ( 'NONE', ( #133 ), #140 ) ;
#153 = ORIENTED_EDGE ( 'NONE', *, *, #106, .T. ) ;
#154 = STYLED_ITEM ( 'NONE', ( #103 ), #1 ) ;
#155 = PRODUCT_RELATED_PRODUCT_CATEGORY ( 'part', '', ( #5 ) ) ;
#156 =( GEOMETRIC_REPRESENTATION_CONTEXT ( 3 ) GLOBAL_UNCERTAINTY_ASSIGNED_CONTEXT ( ( #165 ) ) GLOBAL_UNIT_ASSIGNED_CONTEXT ( ( #97, #163, #114 ) ) REPRESENTATION_CONTEXT ( 'NONE', 'WORKASPACE' ) );
#157 = CARTESIAN_POINT ( 'NONE',  ( 47.75370850148247100, 28.47759563463748100, 0.0000000000000000000 ) ) ;
#158 = VERTEX_POINT ( 'NONE', #70 ) ;
#159 = CIRCLE ( 'NONE', #85, 6.350000000000008500 ) ;
#160 =( NAMED_UNIT ( * ) SI_UNIT ( $, .STERADIAN. ) SOLID_ANGLE_UNIT ( ) );
#161 = FILL_AREA_STYLE_COLOUR ( '', #168 ) ;
#162 = CARTESIAN_POINT ( 'NONE',  ( 50.15090441117644800, 28.47759563463748100, 0.0000000000000000000 ) ) ;
#163 =( NAMED_UNIT ( * ) PLANE_ANGLE_UNIT ( ) SI_UNIT ( $, .RADIAN. ) );
#164 = EDGE_LOOP ( 'NONE', ( #83, #75 ) ) ;
#165 = UNCERTAINTY_MEASURE_WITH_UNIT (LENGTH_MEASURE( 1.000000000000000100E-005 ), #97, 'distance_accuracy_value', 'NONE');
#166 = ORIENTED_EDGE ( 'NONE', *, *, #88, .T. ) ;
#167 = EDGE_LOOP ( 'NONE', ( #72, #179, #27, #61 ) ) ;
#168 = COLOUR_RGB ( '',1.000000000000000000, 1.000000000000000000, 1.000000000000000000 ) ;
#169 = AXIS2_PLACEMENT_3D ( 'NONE', #40, #111, #96 ) ;
#170 = DIRECTION ( 'NONE',  ( -1.000000000000000000, 0.0000000000000000000, 0.0000000000000000000 ) ) ;
#171 = FACE_OUTER_BOUND ( 'NONE', #67, .T. ) ;
#172 = DIRECTION ( 'NONE',  ( 0.0000000000000000000, -1.000000000000000000, 0.0000000000000000000 ) ) ;
#173 = LINE ( 'NONE', #124, #2 ) ;
#174 = DIRECTION ( 'NONE',  ( -1.000000000000000000, -0.0000000000000000000, -0.0000000000000000000 ) ) ;
#175 = CARTESIAN_POINT ( 'NONE',  ( 0.0000000000000000000, 0.0000000000000000000, 0.0000000000000000000 ) ) ;
#176 = DIRECTION ( 'NONE',  ( -1.000000000000000000, -0.0000000000000000000, -0.0000000000000000000 ) ) ;
#177 = PRODUCT_CONTEXT ( 'NONE', #86, 'mechanical' ) ;
#178 = EDGE_LOOP ( 'NONE', ( #182, #108, #122, #166 ) ) ;
#179 = ORIENTED_EDGE ( 'NONE', *, *, #23, .T. ) ;
#180 = EDGE_CURVE ( 'NONE', #118, #132, #183, .T. ) ;
#181 = CARTESIAN_POINT ( 'NONE',  ( 72.17370850148248000, 28.47759563463748100, 0.0000000000000000000 ) ) ;
#182 = ORIENTED_EDGE ( 'NONE', *, *, #23, .F. ) ;
#183 = LINE ( 'NONE', #90, #6 ) ;
#184 = EDGE_CURVE ( 'NONE', #118, #38, #119, .T. ) ;
#185 = ADVANCED_FACE ( 'NONE', ( #28 ), #18, .F. ) ;
#186 = PRESENTATION_LAYER_ASSIGNMENT (  '', '', ( #152 ) ) ;
ENDSEC;
END-ISO-10303-21;
