ISO-10303-21;
HEADER;
FILE_DESCRIPTION (( 'STEP AP214' ),
    '1' );
FILE_NAME ('120307.STEP',
    '2019-06-26T06:33:14',
    ( '' ),
    ( '' ),
    'SwSTEP 2.0',
    'SolidWorks 2016',
    '' );
FILE_SCHEMA (( 'AUTOMOTIVE_DESIGN' ));
ENDSEC;

DATA;
#1 = ORIENTED_EDGE ( 'NONE', *, *, #106, .T. ) ;
#2 = DIRECTION ( 'NONE',  ( -1.000000000000000000, -0.0000000000000000000, -0.0000000000000000000 ) ) ;
#3 =( LENGTH_UNIT ( ) NAMED_UNIT ( * ) SI_UNIT ( .MILLI., .METRE. ) );
#4 = ORIENTED_EDGE ( 'NONE', *, *, #135, .F. ) ;
#5 = SURFACE_STYLE_FILL_AREA ( #24 ) ;
#6 = DIRECTION ( 'NONE',  ( -1.000000000000000000, -0.0000000000000000000, -0.0000000000000000000 ) ) ;
#7 = ADVANCED_FACE ( 'NONE', ( #19 ), #95, .F. ) ;
#8 = VERTEX_POINT ( 'NONE', #123 ) ;
#9 = DIRECTION ( 'NONE',  ( -1.000000000000000000, -0.0000000000000000000, -0.0000000000000000000 ) ) ;
#10 = FILL_AREA_STYLE_COLOUR ( '', #12 ) ;
#11 = ORIENTED_EDGE ( 'NONE', *, *, #146, .F. ) ;
#12 = COLOUR_RGB ( '',1.000000000000000000, 1.000000000000000000, 1.000000000000000000 ) ;
#13 = ORIENTED_EDGE ( 'NONE', *, *, #67, .F. ) ;
#14 = SPHERICAL_SURFACE ( 'NONE', #44, 10.79999999999999400 ) ;
#15 = CARTESIAN_POINT ( 'NONE',  ( 52.30872223377437500, 28.47759563463748100, 0.0000000000000000000 ) ) ;
#16 = EDGE_LOOP ( 'NONE', ( #179, #161, #11, #4, #48 ) ) ;
#17 = DIRECTION ( 'NONE',  ( -1.000000000000000000, -0.0000000000000000000, -0.0000000000000000000 ) ) ;
#18 = FACE_OUTER_BOUND ( 'NONE', #16, .T. ) ;
#19 = FACE_OUTER_BOUND ( 'NONE', #129, .T. ) ;
#20 =( NAMED_UNIT ( * ) SI_UNIT ( $, .STERADIAN. ) SOLID_ANGLE_UNIT ( ) );
#21 = EDGE_CURVE ( 'NONE', #45, #143, #87, .T. ) ;
#22 = EDGE_LOOP ( 'NONE', ( #91, #35 ) ) ;
#23 = CARTESIAN_POINT ( 'NONE',  ( 61.04471101581845700, 28.47759563463748100, 0.0000000000000000000 ) ) ;
#24 = FILL_AREA_STYLE ('',( #39 ) ) ;
#25 = DIRECTION ( 'NONE',  ( -1.000000000000000000, -0.0000000000000000000, -0.0000000000000000000 ) ) ;
#26 = AXIS2_PLACEMENT_3D ( 'NONE', #75, #17, #110 ) ;
#27 = CARTESIAN_POINT ( 'NONE',  ( 44.78209190302423800, 28.47759563463748100, 0.0000000000000000000 ) ) ;
#28 = FACE_OUTER_BOUND ( 'NONE', #150, .T. ) ;
#29 = CARTESIAN_POINT ( 'NONE',  ( 44.78209190302423800, 28.47759563463748100, 6.349999999999994300 ) ) ;
#30 = DIRECTION ( 'NONE',  ( -1.000000000000000000, -0.0000000000000000000, -0.0000000000000000000 ) ) ;
#31 = EDGE_CURVE ( 'NONE', #85, #8, #74, .T. ) ;
#32 = DIRECTION ( 'NONE',  ( 0.0000000000000000000, 0.0000000000000000000, 1.000000000000000000 ) ) ;
#33 = APPLICATION_PROTOCOL_DEFINITION ( 'draft international standard', 'automotive_design', 1998, #88 ) ;
#34 = AXIS2_PLACEMENT_3D ( 'NONE', #178, #2, #103 ) ;
#35 = ORIENTED_EDGE ( 'NONE', *, *, #121, .T. ) ;
#36 = UNCERTAINTY_MEASURE_WITH_UNIT (LENGTH_MEASURE( 1.000000000000000100E-005 ), #3, 'distance_accuracy_value', 'NONE');
#37 = CIRCLE ( 'NONE', #127, 6.349999999999987200 ) ;
#38 = AXIS2_PLACEMENT_3D ( 'NONE', #68, #9, #172 ) ;
#39 = FILL_AREA_STYLE_COLOUR ( '', #77 ) ;
#40 = CARTESIAN_POINT ( 'NONE',  ( 47.74471101581846700, 28.47759563463748100, 0.0000000000000000000 ) ) ;
#41 = PRODUCT_DEFINITION_FORMATION_WITH_SPECIFIED_SOURCE ( 'ÈÎºÎ', '', #69, .NOT_KNOWN. ) ;
#42 = CARTESIAN_POINT ( 'NONE',  ( 47.74471101581846700, 28.47759563463748100, 6.350000000000001400 ) ) ;
#43 = ORIENTED_EDGE ( 'NONE', *, *, #106, .F. ) ;
#44 = AXIS2_PLACEMENT_3D ( 'NONE', #78, #65, #134 ) ;
#45 = VERTEX_POINT ( 'NONE', #94 ) ;
#46 = EDGE_CURVE ( 'NONE', #45, #118, #37, .T. ) ;
#47 =( NAMED_UNIT ( * ) PLANE_ANGLE_UNIT ( ) SI_UNIT ( $, .RADIAN. ) );
#48 = ORIENTED_EDGE ( 'NONE', *, *, #67, .T. ) ;
#49 = DIRECTION ( 'NONE',  ( 0.0000000000000000000, 0.0000000000000000000, 1.000000000000000000 ) ) ;
#50 = CARTESIAN_POINT ( 'NONE',  ( 47.74471101581846700, 28.47759563463748100, -6.350000000000001400 ) ) ;
#51 = CARTESIAN_POINT ( 'NONE',  ( 52.30872223377437500, 22.12759563463749400, 0.0000000000000000000 ) ) ;
#52 = AXIS2_PLACEMENT_3D ( 'NONE', #27, #167, #73 ) ;
#53 = APPLICATION_PROTOCOL_DEFINITION ( 'draft international standard', 'automotive_design', 1998, #117 ) ;
#54 = CYLINDRICAL_SURFACE ( 'NONE', #52, 6.349999999999994300 ) ;
#55 = VECTOR ( 'NONE', #102, 1000.000000000000000 ) ;
#56 =( GEOMETRIC_REPRESENTATION_CONTEXT ( 3 ) GLOBAL_UNCERTAINTY_ASSIGNED_CONTEXT ( ( #36 ) ) GLOBAL_UNIT_ASSIGNED_CONTEXT ( ( #3, #105, #142 ) ) REPRESENTATION_CONTEXT ( 'NONE', 'WORKASPACE' ) );
#57 = DIRECTION ( 'NONE',  ( 0.0000000000000000000, 0.0000000000000000000, 1.000000000000000000 ) ) ;
#58 = STYLED_ITEM ( 'NONE', ( #153 ), #98 ) ;
#59 = LINE ( 'NONE', #29, #126 ) ;
#60 = CARTESIAN_POINT ( 'NONE',  ( 61.04471101581845700, 28.47759563463748100, 0.0000000000000000000 ) ) ;
#61 = AXIS2_PLACEMENT_3D ( 'NONE', #174, #168, #111 ) ;
#62 = CIRCLE ( 'NONE', #61, 10.79999999999999000 ) ;
#63 = ORIENTED_EDGE ( 'NONE', *, *, #135, .T. ) ;
#64 = AXIS2_PLACEMENT_3D ( 'NONE', #114, #116, #182 ) ;
#65 = DIRECTION ( 'NONE',  ( 0.0000000000000000000, 0.0000000000000000000, 1.000000000000000000 ) ) ;
#66 = ADVANCED_FACE ( 'NONE', ( #82 ), #160, .F. ) ;
#67 = EDGE_CURVE ( 'NONE', #164, #85, #99, .T. ) ;
#68 = CARTESIAN_POINT ( 'NONE',  ( 47.74471101581846700, 28.47759563463748100, 0.0000000000000000000 ) ) ;
#69 = PRODUCT ( '120307', '120307', '', ( #185 ) ) ;
#70 = DIRECTION ( 'NONE',  ( 0.0000000000000000000, -1.224646799147353200E-016, 1.000000000000000000 ) ) ;
#71 = CLOSED_SHELL ( 'NONE', ( #130, #7, #184, #113, #66 ) ) ;
#72 = DIRECTION ( 'NONE',  ( 1.000000000000000000, 0.0000000000000000000, 0.0000000000000000000 ) ) ;
#73 = DIRECTION ( 'NONE',  ( 0.0000000000000000000, 0.0000000000000000000, 1.000000000000000000 ) ) ;
#74 = CIRCLE ( 'NONE', #100, 10.79999999999999400 ) ;
#75 = CARTESIAN_POINT ( 'NONE',  ( 52.30872223377437500, 28.47759563463748100, 0.0000000000000000000 ) ) ;
#76 =( NAMED_UNIT ( * ) SI_UNIT ( $, .STERADIAN. ) SOLID_ANGLE_UNIT ( ) );
#77 = COLOUR_RGB ( '',1.000000000000000000, 1.000000000000000000, 1.000000000000000000 ) ;
#78 = CARTESIAN_POINT ( 'NONE',  ( 61.04471101581845700, 28.47759563463748100, 0.0000000000000000000 ) ) ;
#79 = FACE_OUTER_BOUND ( 'NONE', #108, .T. ) ;
#80 = AXIS2_PLACEMENT_3D ( 'NONE', #147, #6, #148 ) ;
#81 = DIRECTION ( 'NONE',  ( 0.0000000000000000000, 0.0000000000000000000, 1.000000000000000000 ) ) ;
#82 = FACE_OUTER_BOUND ( 'NONE', #22, .T. ) ;
#83 = PRESENTATION_LAYER_ASSIGNMENT (  '', '', ( #58 ) ) ;
#84 = DIRECTION ( 'NONE',  ( 0.0000000000000000000, 0.0000000000000000000, -1.000000000000000000 ) ) ;
#85 = VERTEX_POINT ( 'NONE', #180 ) ;
#86 = CARTESIAN_POINT ( 'NONE',  ( 52.30872223377437500, 28.47759563463748100, 6.349999999999987200 ) ) ;
#87 = LINE ( 'NONE', #93, #55 ) ;
#88 = APPLICATION_CONTEXT ( 'automotive_design' ) ;
#89 = UNCERTAINTY_MEASURE_WITH_UNIT (LENGTH_MEASURE( 1.000000000000000100E-005 ), #97, 'distance_accuracy_value', 'NONE');
#90 = SURFACE_STYLE_FILL_AREA ( #151 ) ;
#91 = ORIENTED_EDGE ( 'NONE', *, *, #146, .T. ) ;
#92 = CIRCLE ( 'NONE', #38, 6.350000000000001400 ) ;
#93 = CARTESIAN_POINT ( 'NONE',  ( 44.78209190302423800, 28.47759563463748100, -6.349999999999994300 ) ) ;
#94 = CARTESIAN_POINT ( 'NONE',  ( 52.30872223377437500, 28.47759563463748100, -6.349999999999987200 ) ) ;
#95 = SPHERICAL_SURFACE ( 'NONE', #115, 10.79999999999999400 ) ;
#96 = SURFACE_SIDE_STYLE ('',( #90 ) ) ;
#97 =( LENGTH_UNIT ( ) NAMED_UNIT ( * ) SI_UNIT ( .MILLI., .METRE. ) );
#98 = MANIFOLD_SOLID_BREP ( 'Ðý×ª1', #71 ) ;
#99 = CIRCLE ( 'NONE', #34, 6.349999999999987200 ) ;
#100 = AXIS2_PLACEMENT_3D ( 'NONE', #23, #70, #107 ) ;
#101 = UNCERTAINTY_MEASURE_WITH_UNIT (LENGTH_MEASURE( 1.000000000000000100E-005 ), #169, 'distance_accuracy_value', 'NONE');
#102 = DIRECTION ( 'NONE',  ( -1.000000000000000000, -0.0000000000000000000, -0.0000000000000000000 ) ) ;
#103 = DIRECTION ( 'NONE',  ( 0.0000000000000000000, 0.0000000000000000000, 1.000000000000000000 ) ) ;
#104 = VERTEX_POINT ( 'NONE', #42 ) ;
#105 =( NAMED_UNIT ( * ) PLANE_ANGLE_UNIT ( ) SI_UNIT ( $, .RADIAN. ) );
#106 = EDGE_CURVE ( 'NONE', #118, #164, #144, .T. ) ;
#107 = DIRECTION ( 'NONE',  ( 0.0000000000000000000, -1.000000000000000000, -1.224646799147353200E-016 ) ) ;
#108 = EDGE_LOOP ( 'NONE', ( #186, #13, #43, #158 ) ) ;
#109 = EDGE_CURVE ( 'NONE', #85, #45, #136, .T. ) ;
#110 = DIRECTION ( 'NONE',  ( 0.0000000000000000000, 0.0000000000000000000, 1.000000000000000000 ) ) ;
#111 = DIRECTION ( 'NONE',  ( -1.000000000000000000, 0.0000000000000000000, 0.0000000000000000000 ) ) ;
#112 = ORIENTED_EDGE ( 'NONE', *, *, #21, .F. ) ;
#113 = ADVANCED_FACE ( 'NONE', ( #28 ), #54, .T. ) ;
#114 = CARTESIAN_POINT ( 'NONE',  ( 44.78209190302423800, 28.47759563463748100, 0.0000000000000000000 ) ) ;
#115 = AXIS2_PLACEMENT_3D ( 'NONE', #60, #57, #139 ) ;
#116 = DIRECTION ( 'NONE',  ( -1.000000000000000000, -0.0000000000000000000, -0.0000000000000000000 ) ) ;
#117 = APPLICATION_CONTEXT ( 'automotive_design' ) ;
#118 = VERTEX_POINT ( 'NONE', #51 ) ;
#119 = PRESENTATION_STYLE_ASSIGNMENT (( #183 ) ) ;
#120 = ORIENTED_EDGE ( 'NONE', *, *, #121, .F. ) ;
#121 = EDGE_CURVE ( 'NONE', #143, #104, #175, .T. ) ;
#122 = SURFACE_SIDE_STYLE ('',( #5 ) ) ;
#123 = CARTESIAN_POINT ( 'NONE',  ( 50.24471101581846700, 28.47759563463748100, 0.0000000000000000000 ) ) ;
#124 = SHAPE_DEFINITION_REPRESENTATION ( #140, #165 ) ;
#125 = MECHANICAL_DESIGN_GEOMETRIC_PRESENTATION_REPRESENTATION (  '', ( #58 ), #56 ) ;
#126 = VECTOR ( 'NONE', #132, 1000.000000000000000 ) ;
#127 = AXIS2_PLACEMENT_3D ( 'NONE', #15, #25, #81 ) ;
#128 = CARTESIAN_POINT ( 'NONE',  ( 47.74471101581846700, 28.47759563463748100, 0.0000000000000000000 ) ) ;
#129 = EDGE_LOOP ( 'NONE', ( #137, #170, #176, #155 ) ) ;
#130 = ADVANCED_FACE ( 'NONE', ( #18 ), #149, .T. ) ;
#131 = CARTESIAN_POINT ( 'NONE',  ( 0.0000000000000000000, 0.0000000000000000000, 0.0000000000000000000 ) ) ;
#132 = DIRECTION ( 'NONE',  ( -1.000000000000000000, -0.0000000000000000000, -0.0000000000000000000 ) ) ;
#133 =( GEOMETRIC_REPRESENTATION_CONTEXT ( 3 ) GLOBAL_UNCERTAINTY_ASSIGNED_CONTEXT ( ( #101 ) ) GLOBAL_UNIT_ASSIGNED_CONTEXT ( ( #169, #47, #76 ) ) REPRESENTATION_CONTEXT ( 'NONE', 'WORKASPACE' ) );
#134 = DIRECTION ( 'NONE',  ( 0.0000000000000000000, -1.000000000000000000, 0.0000000000000000000 ) ) ;
#135 = EDGE_CURVE ( 'NONE', #164, #104, #59, .T. ) ;
#136 = CIRCLE ( 'NONE', #80, 6.349999999999987200 ) ;
#137 = ORIENTED_EDGE ( 'NONE', *, *, #109, .F. ) ;
#138 = AXIS2_PLACEMENT_3D ( 'NONE', #128, #30, #32 ) ;
#139 = DIRECTION ( 'NONE',  ( 0.0000000000000000000, -1.000000000000000000, 0.0000000000000000000 ) ) ;
#140 = PRODUCT_DEFINITION_SHAPE ( 'NONE', 'NONE',  #163 ) ;
#141 = PRODUCT_DEFINITION_CONTEXT ( 'detailed design', #117, 'design' ) ;
#142 =( NAMED_UNIT ( * ) SI_UNIT ( $, .STERADIAN. ) SOLID_ANGLE_UNIT ( ) );
#143 = VERTEX_POINT ( 'NONE', #50 ) ;
#144 = CIRCLE ( 'NONE', #26, 6.349999999999987200 ) ;
#145 = PRESENTATION_LAYER_ASSIGNMENT (  '', '', ( #152 ) ) ;
#146 = EDGE_CURVE ( 'NONE', #104, #143, #92, .T. ) ;
#147 = CARTESIAN_POINT ( 'NONE',  ( 52.30872223377437500, 28.47759563463748100, 0.0000000000000000000 ) ) ;
#148 = DIRECTION ( 'NONE',  ( 0.0000000000000000000, 0.0000000000000000000, 1.000000000000000000 ) ) ;
#149 = CYLINDRICAL_SURFACE ( 'NONE', #64, 6.349999999999994300 ) ;
#150 = EDGE_LOOP ( 'NONE', ( #112, #166, #1, #63, #120 ) ) ;
#151 = FILL_AREA_STYLE ('',( #10 ) ) ;
#152 = STYLED_ITEM ( 'NONE', ( #119 ), #165 ) ;
#153 = PRESENTATION_STYLE_ASSIGNMENT (( #162 ) ) ;
#154 =( NAMED_UNIT ( * ) PLANE_ANGLE_UNIT ( ) SI_UNIT ( $, .RADIAN. ) );
#155 = ORIENTED_EDGE ( 'NONE', *, *, #46, .F. ) ;
#156 = EDGE_CURVE ( 'NONE', #118, #8, #62, .T. ) ;
#157 = AXIS2_PLACEMENT_3D ( 'NONE', #40, #72, #84 ) ;
#158 = ORIENTED_EDGE ( 'NONE', *, *, #156, .T. ) ;
#159 = MECHANICAL_DESIGN_GEOMETRIC_PRESENTATION_REPRESENTATION (  '', ( #152 ), #177 ) ;
#160 = PLANE ( 'NONE',  #157 ) ;
#161 = ORIENTED_EDGE ( 'NONE', *, *, #21, .T. ) ;
#162 = SURFACE_STYLE_USAGE ( .BOTH. , #122 ) ;
#163 = PRODUCT_DEFINITION ( 'Î´Öª', '', #41, #141 ) ;
#164 = VERTEX_POINT ( 'NONE', #86 ) ;
#165 = ADVANCED_BREP_SHAPE_REPRESENTATION ( '120307', ( #98, #173 ), #133 ) ;
#166 = ORIENTED_EDGE ( 'NONE', *, *, #46, .T. ) ;
#167 = DIRECTION ( 'NONE',  ( -1.000000000000000000, -0.0000000000000000000, -0.0000000000000000000 ) ) ;
#168 = DIRECTION ( 'NONE',  ( 0.0000000000000000000, 0.0000000000000000000, -1.000000000000000000 ) ) ;
#169 =( LENGTH_UNIT ( ) NAMED_UNIT ( * ) SI_UNIT ( .MILLI., .METRE. ) );
#170 = ORIENTED_EDGE ( 'NONE', *, *, #31, .T. ) ;
#171 = DIRECTION ( 'NONE',  ( 1.000000000000000000, 0.0000000000000000000, 0.0000000000000000000 ) ) ;
#172 = DIRECTION ( 'NONE',  ( 0.0000000000000000000, 0.0000000000000000000, 1.000000000000000000 ) ) ;
#173 = AXIS2_PLACEMENT_3D ( 'NONE', #131, #49, #171 ) ;
#174 = CARTESIAN_POINT ( 'NONE',  ( 61.04471101581845700, 28.47759563463748100, 0.0000000000000000000 ) ) ;
#175 = CIRCLE ( 'NONE', #138, 6.350000000000001400 ) ;
#176 = ORIENTED_EDGE ( 'NONE', *, *, #156, .F. ) ;
#177 =( GEOMETRIC_REPRESENTATION_CONTEXT ( 3 ) GLOBAL_UNCERTAINTY_ASSIGNED_CONTEXT ( ( #89 ) ) GLOBAL_UNIT_ASSIGNED_CONTEXT ( ( #97, #154, #20 ) ) REPRESENTATION_CONTEXT ( 'NONE', 'WORKASPACE' ) );
#178 = CARTESIAN_POINT ( 'NONE',  ( 52.30872223377437500, 28.47759563463748100, 0.0000000000000000000 ) ) ;
#179 = ORIENTED_EDGE ( 'NONE', *, *, #109, .T. ) ;
#180 = CARTESIAN_POINT ( 'NONE',  ( 52.30872223377437500, 34.82759563463746800, 7.776507174585677400E-016 ) ) ;
#181 = PRODUCT_RELATED_PRODUCT_CATEGORY ( 'part', '', ( #69 ) ) ;
#182 = DIRECTION ( 'NONE',  ( 0.0000000000000000000, 0.0000000000000000000, 1.000000000000000000 ) ) ;
#183 = SURFACE_STYLE_USAGE ( .BOTH. , #96 ) ;
#184 = ADVANCED_FACE ( 'NONE', ( #79 ), #14, .F. ) ;
#185 = PRODUCT_CONTEXT ( 'NONE', #88, 'mechanical' ) ;
#186 = ORIENTED_EDGE ( 'NONE', *, *, #31, .F. ) ;
ENDSEC;
END-ISO-10303-21;
