ISO-10303-21;
HEADER;
FILE_DESCRIPTION (( 'STEP AP214' ),
    '1' );
FILE_NAME ('120306.STEP',
    '2019-06-26T06:09:13',
    ( '' ),
    ( '' ),
    'SwSTEP 2.0',
    'SolidWorks 2016',
    '' );
FILE_SCHEMA (( 'AUTOMOTIVE_DESIGN' ));
ENDSEC;

DATA;
#1 = COLOUR_RGB ( '',1.000000000000000000, 1.000000000000000000, 1.000000000000000000 ) ;
#2 = PRODUCT_DEFINITION_SHAPE ( 'NONE', 'NONE',  #179 ) ;
#3 = PRODUCT_DEFINITION_FORMATION_WITH_SPECIFIED_SOURCE ( 'ÈÎºÎ', '', #91, .NOT_KNOWN. ) ;
#4 = ORIENTED_EDGE ( 'NONE', *, *, #162, .T. ) ;
#5 = FILL_AREA_STYLE_COLOUR ( '', #185 ) ;
#6 = VECTOR ( 'NONE', #154, 1000.000000000000000 ) ;
#7 = DIRECTION ( 'NONE',  ( -1.000000000000000000, -0.0000000000000000000, -0.0000000000000000000 ) ) ;
#8 = DIRECTION ( 'NONE',  ( 0.0000000000000000000, -1.000000000000000000, 0.0000000000000000000 ) ) ;
#9 = DIRECTION ( 'NONE',  ( -1.000000000000000000, -0.0000000000000000000, -0.0000000000000000000 ) ) ;
#10 = SHAPE_DEFINITION_REPRESENTATION ( #2, #132 ) ;
#11 = VERTEX_POINT ( 'NONE', #36 ) ;
#12 = FACE_OUTER_BOUND ( 'NONE', #99, .T. ) ;
#13 = EDGE_LOOP ( 'NONE', ( #149, #31, #156, #35, #43 ) ) ;
#14 = DIRECTION ( 'NONE',  ( 0.0000000000000000000, 0.0000000000000000000, 1.000000000000000000 ) ) ;
#15 = PRODUCT_RELATED_PRODUCT_CATEGORY ( 'part', '', ( #91 ) ) ;
#16 = ORIENTED_EDGE ( 'NONE', *, *, #55, .T. ) ;
#17 = ORIENTED_EDGE ( 'NONE', *, *, #44, .F. ) ;
#18 = ORIENTED_EDGE ( 'NONE', *, *, #34, .F. ) ;
#19 = PRODUCT_DEFINITION_CONTEXT ( 'detailed design', #85, 'design' ) ;
#20 = CIRCLE ( 'NONE', #111, 6.350000000000001400 ) ;
#21 = DIRECTION ( 'NONE',  ( 0.0000000000000000000, 0.0000000000000000000, 1.000000000000000000 ) ) ;
#22 = VERTEX_POINT ( 'NONE', #48 ) ;
#23 = CARTESIAN_POINT ( 'NONE',  ( 53.01508630730231200, 28.47759563463748100, 0.0000000000000000000 ) ) ;
#24 = DIRECTION ( 'NONE',  ( -1.000000000000000000, -0.0000000000000000000, -0.0000000000000000000 ) ) ;
#25 = CARTESIAN_POINT ( 'NONE',  ( 44.78209190302423800, 28.47759563463748100, 0.0000000000000000000 ) ) ;
#26 = SURFACE_STYLE_FILL_AREA ( #71 ) ;
#27 =( LENGTH_UNIT ( ) NAMED_UNIT ( * ) SI_UNIT ( .MILLI., .METRE. ) );
#28 = DIRECTION ( 'NONE',  ( 0.0000000000000000000, 0.0000000000000000000, 1.000000000000000000 ) ) ;
#29 = DIRECTION ( 'NONE',  ( -1.000000000000000000, -0.0000000000000000000, -0.0000000000000000000 ) ) ;
#30 = MANIFOLD_SOLID_BREP ( 'Ðý×ª1', #127 ) ;
#31 = ORIENTED_EDGE ( 'NONE', *, *, #73, .T. ) ;
#32 = ORIENTED_EDGE ( 'NONE', *, *, #113, .F. ) ;
#33 =( LENGTH_UNIT ( ) NAMED_UNIT ( * ) SI_UNIT ( .MILLI., .METRE. ) );
#34 = EDGE_CURVE ( 'NONE', #166, #22, #46, .T. ) ;
#35 = ORIENTED_EDGE ( 'NONE', *, *, #155, .F. ) ;
#36 = CARTESIAN_POINT ( 'NONE',  ( 53.01508630730231200, 22.12759563463748700, 0.0000000000000000000 ) ) ;
#37 = PRESENTATION_LAYER_ASSIGNMENT (  '', '', ( #136 ) ) ;
#38 = CARTESIAN_POINT ( 'NONE',  ( 47.74471101581846700, 28.47759563463748100, 6.350000000000001400 ) ) ;
#39 = CYLINDRICAL_SURFACE ( 'NONE', #138, 6.349999999999997900 ) ;
#40 =( NAMED_UNIT ( * ) SI_UNIT ( $, .STERADIAN. ) SOLID_ANGLE_UNIT ( ) );
#41 = FACE_OUTER_BOUND ( 'NONE', #135, .T. ) ;
#42 = PRESENTATION_LAYER_ASSIGNMENT (  '', '', ( #84 ) ) ;
#43 = ORIENTED_EDGE ( 'NONE', *, *, #34, .T. ) ;
#44 = EDGE_CURVE ( 'NONE', #11, #166, #110, .T. ) ;
#45 = UNCERTAINTY_MEASURE_WITH_UNIT (LENGTH_MEASURE( 1.000000000000000100E-005 ), #164, 'distance_accuracy_value', 'NONE');
#46 = CIRCLE ( 'NONE', #140, 6.349999999999994300 ) ;
#47 = VERTEX_POINT ( 'NONE', #38 ) ;
#48 = CARTESIAN_POINT ( 'NONE',  ( 53.01508630730231200, 34.82759563463747600, 7.776507174585687200E-016 ) ) ;
#49 = SURFACE_STYLE_FILL_AREA ( #60 ) ;
#50 = ORIENTED_EDGE ( 'NONE', *, *, #55, .F. ) ;
#51 = DIRECTION ( 'NONE',  ( 0.0000000000000000000, 0.0000000000000000000, 1.000000000000000000 ) ) ;
#52 = DIRECTION ( 'NONE',  ( -1.000000000000000000, 0.0000000000000000000, 0.0000000000000000000 ) ) ;
#53 = CARTESIAN_POINT ( 'NONE',  ( 47.74471101581846700, 28.47759563463748100, 0.0000000000000000000 ) ) ;
#54 = CARTESIAN_POINT ( 'NONE',  ( 49.74471101581846700, 28.47759563463748100, 0.0000000000000000000 ) ) ;
#55 = EDGE_CURVE ( 'NONE', #22, #103, #124, .T. ) ;
#56 = ORIENTED_EDGE ( 'NONE', *, *, #88, .F. ) ;
#57 = EDGE_LOOP ( 'NONE', ( #81, #4 ) ) ;
#58 = LINE ( 'NONE', #79, #146 ) ;
#59 = CARTESIAN_POINT ( 'NONE',  ( 53.01508630730231200, 28.47759563463748100, 0.0000000000000000000 ) ) ;
#60 = FILL_AREA_STYLE ('',( #5 ) ) ;
#61 = EDGE_CURVE ( 'NONE', #11, #103, #141, .T. ) ;
#62 = FACE_OUTER_BOUND ( 'NONE', #57, .T. ) ;
#63 = DIRECTION ( 'NONE',  ( -1.000000000000000000, -0.0000000000000000000, -0.0000000000000000000 ) ) ;
#64 = DIRECTION ( 'NONE',  ( 0.0000000000000000000, 0.0000000000000000000, 1.000000000000000000 ) ) ;
#65 = DIRECTION ( 'NONE',  ( 0.0000000000000000000, 0.0000000000000000000, 1.000000000000000000 ) ) ;
#66 = FACE_OUTER_BOUND ( 'NONE', #13, .T. ) ;
#67 = DIRECTION ( 'NONE',  ( 0.0000000000000000000, 0.0000000000000000000, 1.000000000000000000 ) ) ;
#68 =( NAMED_UNIT ( * ) PLANE_ANGLE_UNIT ( ) SI_UNIT ( $, .RADIAN. ) );
#69 = LINE ( 'NONE', #120, #6 ) ;
#70 = AXIS2_PLACEMENT_3D ( 'NONE', #139, #153, #64 ) ;
#71 = FILL_AREA_STYLE ('',( #186 ) ) ;
#72 = ADVANCED_FACE ( 'NONE', ( #41 ), #134, .F. ) ;
#73 = EDGE_CURVE ( 'NONE', #168, #172, #58, .T. ) ;
#74 = ORIENTED_EDGE ( 'NONE', *, *, #113, .T. ) ;
#75 = AXIS2_PLACEMENT_3D ( 'NONE', #53, #151, #118 ) ;
#76 = SPHERICAL_SURFACE ( 'NONE', #171, 7.800000000000006900 ) ;
#77 =( NAMED_UNIT ( * ) PLANE_ANGLE_UNIT ( ) SI_UNIT ( $, .RADIAN. ) );
#78 = CARTESIAN_POINT ( 'NONE',  ( 57.54471101581847800, 28.47759563463748100, 0.0000000000000000000 ) ) ;
#79 = CARTESIAN_POINT ( 'NONE',  ( 44.78209190302423800, 28.47759563463748100, -6.349999999999997900 ) ) ;
#80 = CARTESIAN_POINT ( 'NONE',  ( 47.74471101581846700, 28.47759563463748100, 0.0000000000000000000 ) ) ;
#81 = ORIENTED_EDGE ( 'NONE', *, *, #109, .T. ) ;
#82 = CARTESIAN_POINT ( 'NONE',  ( 47.74471101581846700, 28.47759563463748100, 0.0000000000000000000 ) ) ;
#83 = SURFACE_SIDE_STYLE ('',( #26 ) ) ;
#84 = STYLED_ITEM ( 'NONE', ( #170 ), #30 ) ;
#85 = APPLICATION_CONTEXT ( 'automotive_design' ) ;
#86 = AXIS2_PLACEMENT_3D ( 'NONE', #25, #7, #143 ) ;
#87 = ADVANCED_FACE ( 'NONE', ( #62 ), #128, .F. ) ;
#88 = EDGE_CURVE ( 'NONE', #22, #168, #137, .T. ) ;
#89 = CIRCLE ( 'NONE', #147, 6.349999999999994300 ) ;
#90 = MECHANICAL_DESIGN_GEOMETRIC_PRESENTATION_REPRESENTATION (  '', ( #84 ), #117 ) ;
#91 = PRODUCT ( '120306', '120306', '', ( #169 ) ) ;
#92 = UNCERTAINTY_MEASURE_WITH_UNIT (LENGTH_MEASURE( 1.000000000000000100E-005 ), #33, 'distance_accuracy_value', 'NONE');
#93 = CYLINDRICAL_SURFACE ( 'NONE', #86, 6.349999999999997900 ) ;
#94 = SURFACE_SIDE_STYLE ('',( #49 ) ) ;
#95 = DIRECTION ( 'NONE',  ( 0.0000000000000000000, -1.000000000000000000, 0.0000000000000000000 ) ) ;
#96 = DIRECTION ( 'NONE',  ( 0.0000000000000000000, 0.0000000000000000000, 1.000000000000000000 ) ) ;
#97 = AXIS2_PLACEMENT_3D ( 'NONE', #82, #9, #28 ) ;
#98 = CARTESIAN_POINT ( 'NONE',  ( 57.54471101581847800, 28.47759563463748100, 0.0000000000000000000 ) ) ;
#99 = EDGE_LOOP ( 'NONE', ( #130, #74, #105, #126, #175 ) ) ;
#100 = ADVANCED_FACE ( 'NONE', ( #66 ), #93, .T. ) ;
#101 = DIRECTION ( 'NONE',  ( 0.0000000000000000000, 0.0000000000000000000, -1.000000000000000000 ) ) ;
#102 = DIRECTION ( 'NONE',  ( 0.0000000000000000000, 0.0000000000000000000, 1.000000000000000000 ) ) ;
#103 = VERTEX_POINT ( 'NONE', #54 ) ;
#104 = ADVANCED_FACE ( 'NONE', ( #12 ), #39, .T. ) ;
#105 = ORIENTED_EDGE ( 'NONE', *, *, #44, .T. ) ;
#106 =( NAMED_UNIT ( * ) SI_UNIT ( $, .STERADIAN. ) SOLID_ANGLE_UNIT ( ) );
#107 = CIRCLE ( 'NONE', #97, 6.350000000000001400 ) ;
#108 = AXIS2_PLACEMENT_3D ( 'NONE', #167, #101, #52 ) ;
#109 = EDGE_CURVE ( 'NONE', #47, #172, #20, .T. ) ;
#110 = CIRCLE ( 'NONE', #158, 6.349999999999994300 ) ;
#111 = AXIS2_PLACEMENT_3D ( 'NONE', #80, #24, #51 ) ;
#112 =( NAMED_UNIT ( * ) SI_UNIT ( $, .STERADIAN. ) SOLID_ANGLE_UNIT ( ) );
#113 = EDGE_CURVE ( 'NONE', #168, #11, #89, .T. ) ;
#114 = ORIENTED_EDGE ( 'NONE', *, *, #61, .F. ) ;
#115 = SURFACE_STYLE_USAGE ( .BOTH. , #94 ) ;
#116 = DIRECTION ( 'NONE',  ( 0.0000000000000000000, 0.0000000000000000000, 1.000000000000000000 ) ) ;
#117 =( GEOMETRIC_REPRESENTATION_CONTEXT ( 3 ) GLOBAL_UNCERTAINTY_ASSIGNED_CONTEXT ( ( #45 ) ) GLOBAL_UNIT_ASSIGNED_CONTEXT ( ( #164, #77, #112 ) ) REPRESENTATION_CONTEXT ( 'NONE', 'WORKASPACE' ) );
#118 = DIRECTION ( 'NONE',  ( 0.0000000000000000000, 0.0000000000000000000, -1.000000000000000000 ) ) ;
#119 = CARTESIAN_POINT ( 'NONE',  ( 0.0000000000000000000, 0.0000000000000000000, 0.0000000000000000000 ) ) ;
#120 = CARTESIAN_POINT ( 'NONE',  ( 44.78209190302423800, 28.47759563463748100, 6.349999999999997900 ) ) ;
#121 = CARTESIAN_POINT ( 'NONE',  ( 47.74471101581846700, 28.47759563463748100, -6.350000000000000500 ) ) ;
#122 = ADVANCED_FACE ( 'NONE', ( #160 ), #76, .F. ) ;
#123 = PRESENTATION_STYLE_ASSIGNMENT (( #184 ) ) ;
#124 = CIRCLE ( 'NONE', #165, 7.800000000000008700 ) ;
#125 = AXIS2_PLACEMENT_3D ( 'NONE', #150, #65, #8 ) ;
#126 = ORIENTED_EDGE ( 'NONE', *, *, #155, .T. ) ;
#127 = CLOSED_SHELL ( 'NONE', ( #100, #122, #72, #104, #87 ) ) ;
#128 = PLANE ( 'NONE',  #75 ) ;
#129 = CARTESIAN_POINT ( 'NONE',  ( 44.78209190302423800, 28.47759563463748100, 0.0000000000000000000 ) ) ;
#130 = ORIENTED_EDGE ( 'NONE', *, *, #73, .F. ) ;
#131 = APPLICATION_CONTEXT ( 'automotive_design' ) ;
#132 = ADVANCED_BREP_SHAPE_REPRESENTATION ( '120306', ( #30, #159 ), #182 ) ;
#133 = DIRECTION ( 'NONE',  ( -1.000000000000000000, -0.0000000000000000000, -0.0000000000000000000 ) ) ;
#134 = SPHERICAL_SURFACE ( 'NONE', #125, 7.800000000000006900 ) ;
#135 = EDGE_LOOP ( 'NONE', ( #50, #18, #17, #177 ) ) ;
#136 = STYLED_ITEM ( 'NONE', ( #123 ), #132 ) ;
#137 = CIRCLE ( 'NONE', #70, 6.349999999999994300 ) ;
#138 = AXIS2_PLACEMENT_3D ( 'NONE', #129, #142, #96 ) ;
#139 = CARTESIAN_POINT ( 'NONE',  ( 53.01508630730231200, 28.47759563463748100, 0.0000000000000000000 ) ) ;
#140 = AXIS2_PLACEMENT_3D ( 'NONE', #59, #63, #116 ) ;
#141 = CIRCLE ( 'NONE', #108, 7.800000000000008700 ) ;
#142 = DIRECTION ( 'NONE',  ( -1.000000000000000000, -0.0000000000000000000, -0.0000000000000000000 ) ) ;
#143 = DIRECTION ( 'NONE',  ( 0.0000000000000000000, 0.0000000000000000000, 1.000000000000000000 ) ) ;
#144 = MECHANICAL_DESIGN_GEOMETRIC_PRESENTATION_REPRESENTATION (  '', ( #136 ), #148 ) ;
#145 = DIRECTION ( 'NONE',  ( 1.000000000000000000, 0.0000000000000000000, 0.0000000000000000000 ) ) ;
#146 = VECTOR ( 'NONE', #133, 1000.000000000000000 ) ;
#147 = AXIS2_PLACEMENT_3D ( 'NONE', #176, #29, #102 ) ;
#148 =( GEOMETRIC_REPRESENTATION_CONTEXT ( 3 ) GLOBAL_UNCERTAINTY_ASSIGNED_CONTEXT ( ( #92 ) ) GLOBAL_UNIT_ASSIGNED_CONTEXT ( ( #33, #181, #106 ) ) REPRESENTATION_CONTEXT ( 'NONE', 'WORKASPACE' ) );
#149 = ORIENTED_EDGE ( 'NONE', *, *, #88, .T. ) ;
#150 = CARTESIAN_POINT ( 'NONE',  ( 57.54471101581847800, 28.47759563463748100, 0.0000000000000000000 ) ) ;
#151 = DIRECTION ( 'NONE',  ( 1.000000000000000000, 0.0000000000000000000, 0.0000000000000000000 ) ) ;
#152 = DIRECTION ( 'NONE',  ( 0.0000000000000000000, -1.000000000000000000, -1.224646799147353000E-016 ) ) ;
#153 = DIRECTION ( 'NONE',  ( -1.000000000000000000, -0.0000000000000000000, -0.0000000000000000000 ) ) ;
#154 = DIRECTION ( 'NONE',  ( -1.000000000000000000, -0.0000000000000000000, -0.0000000000000000000 ) ) ;
#155 = EDGE_CURVE ( 'NONE', #166, #47, #69, .T. ) ;
#156 = ORIENTED_EDGE ( 'NONE', *, *, #109, .F. ) ;
#157 = APPLICATION_PROTOCOL_DEFINITION ( 'draft international standard', 'automotive_design', 1998, #131 ) ;
#158 = AXIS2_PLACEMENT_3D ( 'NONE', #23, #163, #21 ) ;
#159 = AXIS2_PLACEMENT_3D ( 'NONE', #119, #14, #145 ) ;
#160 = FACE_OUTER_BOUND ( 'NONE', #161, .T. ) ;
#161 = EDGE_LOOP ( 'NONE', ( #56, #16, #114, #32 ) ) ;
#162 = EDGE_CURVE ( 'NONE', #172, #47, #107, .T. ) ;
#163 = DIRECTION ( 'NONE',  ( -1.000000000000000000, -0.0000000000000000000, -0.0000000000000000000 ) ) ;
#164 =( LENGTH_UNIT ( ) NAMED_UNIT ( * ) SI_UNIT ( .MILLI., .METRE. ) );
#165 = AXIS2_PLACEMENT_3D ( 'NONE', #78, #174, #152 ) ;
#166 = VERTEX_POINT ( 'NONE', #180 ) ;
#167 = CARTESIAN_POINT ( 'NONE',  ( 57.54471101581847800, 28.47759563463748100, 0.0000000000000000000 ) ) ;
#168 = VERTEX_POINT ( 'NONE', #178 ) ;
#169 = PRODUCT_CONTEXT ( 'NONE', #131, 'mechanical' ) ;
#170 = PRESENTATION_STYLE_ASSIGNMENT (( #115 ) ) ;
#171 = AXIS2_PLACEMENT_3D ( 'NONE', #98, #67, #95 ) ;
#172 = VERTEX_POINT ( 'NONE', #121 ) ;
#173 = UNCERTAINTY_MEASURE_WITH_UNIT (LENGTH_MEASURE( 1.000000000000000100E-005 ), #27, 'distance_accuracy_value', 'NONE');
#174 = DIRECTION ( 'NONE',  ( 0.0000000000000000000, -1.224646799147353200E-016, 1.000000000000000000 ) ) ;
#175 = ORIENTED_EDGE ( 'NONE', *, *, #162, .F. ) ;
#176 = CARTESIAN_POINT ( 'NONE',  ( 53.01508630730231200, 28.47759563463748100, 0.0000000000000000000 ) ) ;
#177 = ORIENTED_EDGE ( 'NONE', *, *, #61, .T. ) ;
#178 = CARTESIAN_POINT ( 'NONE',  ( 53.01508630730231200, 28.47759563463748100, -6.349999999999994300 ) ) ;
#179 = PRODUCT_DEFINITION ( 'Î´Öª', '', #3, #19 ) ;
#180 = CARTESIAN_POINT ( 'NONE',  ( 53.01508630730231200, 28.47759563463748100, 6.349999999999994300 ) ) ;
#181 =( NAMED_UNIT ( * ) PLANE_ANGLE_UNIT ( ) SI_UNIT ( $, .RADIAN. ) );
#182 =( GEOMETRIC_REPRESENTATION_CONTEXT ( 3 ) GLOBAL_UNCERTAINTY_ASSIGNED_CONTEXT ( ( #173 ) ) GLOBAL_UNIT_ASSIGNED_CONTEXT ( ( #27, #68, #40 ) ) REPRESENTATION_CONTEXT ( 'NONE', 'WORKASPACE' ) );
#183 = APPLICATION_PROTOCOL_DEFINITION ( 'draft international standard', 'automotive_design', 1998, #85 ) ;
#184 = SURFACE_STYLE_USAGE ( .BOTH. , #83 ) ;
#185 = COLOUR_RGB ( '',1.000000000000000000, 1.000000000000000000, 1.000000000000000000 ) ;
#186 = FILL_AREA_STYLE_COLOUR ( '', #1 ) ;
ENDSEC;
END-ISO-10303-21;
