ISO-10303-21;
HEADER;
FILE_DESCRIPTION (( 'STEP AP203' ),
    '1' );
FILE_NAME ('120350.STEP',
    '2024-05-10T06:20:07',
    ( '' ),
    ( '' ),
    'SwSTEP 2.0',
    'SolidWorks 2020',
    '' );
FILE_SCHEMA (( 'CONFIG_CONTROL_DESIGN' ));
ENDSEC;

DATA;
#1 = DIRECTION ( 'NONE',  ( 1.000000000000000000, 1.224646799147353207E-16, -0.000000000000000000 ) ) ;
#2 = LOCAL_TIME ( 14, 20, 7.000000000000000000, #49 ) ;
#3 = DIRECTION ( 'NONE',  ( 1.000000000000000000, 1.224646799147353207E-16, -0.000000000000000000 ) ) ;
#4 = CARTESIAN_POINT ( 'NONE',  ( 0.000000000000000000, 0.000000000000000000, 0.000000000000000000 ) ) ;
#5 = DIRECTION ( 'NONE',  ( -1.445602896647338917E-16, 1.000000000000000000, 0.000000000000000000 ) ) ;
#6 = EDGE_CURVE ( 'NONE', #92, #55, #181, .T. ) ;
#7 = APPROVAL_ROLE ( '' ) ;
#8 = EDGE_CURVE ( 'NONE', #123, #62, #90, .T. ) ;
#9 = COORDINATED_UNIVERSAL_TIME_OFFSET ( 8, 0, .AHEAD. ) ;
#10 = AXIS2_PLACEMENT_3D ( 'NONE', #185, #122, #134 ) ;
#11 = DIRECTION ( 'NONE',  ( 1.000000000000000000, 1.224646799147353207E-16, -0.000000000000000000 ) ) ;
#12 = DIRECTION ( 'NONE',  ( 1.000000000000000000, 1.224646799147353207E-16, -0.000000000000000000 ) ) ;
#13 = ORIENTED_EDGE ( 'NONE', *, *, #97, .F. ) ;
#14 = CARTESIAN_POINT ( 'NONE',  ( -1.735267428033138639E-16, 3.000000000000000000, 0.000000000000000000 ) ) ;
#15 = AXIS2_PLACEMENT_3D ( 'NONE', #86, #149, #195 ) ;
#16 = FACE_OUTER_BOUND ( 'NONE', #119, .T. ) ;
#17 = CC_DESIGN_PERSON_AND_ORGANIZATION_ASSIGNMENT ( #54, #133, ( #91 ) ) ;
#18 = CC_DESIGN_SECURITY_CLASSIFICATION ( #103, ( #167 ) ) ;
#19 = ORIENTED_EDGE ( 'NONE', *, *, #35, .F. ) ;
#20 = ORIENTED_EDGE ( 'NONE', *, *, #198, .T. ) ;
#21 = CC_DESIGN_APPROVAL ( #139, ( #103 ) ) ;
#22 = PLANE ( 'NONE',  #15 ) ;
#23 = DIRECTION ( 'NONE',  ( -1.224646799147353207E-16, 1.000000000000000000, 0.000000000000000000 ) ) ;
#24 = CARTESIAN_POINT ( 'NONE',  ( -3.673940397442059868E-16, 3.000000000000000000, 0.000000000000000000 ) ) ;
#25 = PERSON_AND_ORGANIZATION ( #64, #121 ) ;
#26 = CIRCLE ( 'NONE', #10, 3.000000000000000000 ) ;
#27 = ORIENTED_EDGE ( 'NONE', *, *, #6, .T. ) ;
#28 = DIRECTION ( 'NONE',  ( -1.224646799147353207E-16, 1.000000000000000000, 0.000000000000000000 ) ) ;
#29 = CARTESIAN_POINT ( 'NONE',  ( -1.949999999999999956, -2.388061258337338643E-16, 0.000000000000000000 ) ) ;
#30 = ORIENTED_EDGE ( 'NONE', *, *, #76, .F. ) ;
#31 = ORIENTED_EDGE ( 'NONE', *, *, #97, .T. ) ;
#32 = AXIS2_PLACEMENT_3D ( 'NONE', #136, #3, #5 ) ;
#33 = CC_DESIGN_PERSON_AND_ORGANIZATION_ASSIGNMENT ( #48, #172, ( #103 ) ) ;
#34 = DATE_AND_TIME ( #112, #2 ) ;
#35 = EDGE_CURVE ( 'NONE', #55, #92, #199, .T. ) ;
#36 = LINE ( 'NONE', #24, #47 ) ;
#37 = CALENDAR_DATE ( 2024, 10, 5 ) ;
#38 = CARTESIAN_POINT ( 'NONE',  ( -11.82998799584086846, -0.01574819937613051307, 0.000000000000000000 ) ) ;
#39 = PERSON_AND_ORGANIZATION_ROLE ( 'creator' ) ;
#40 = PERSON_AND_ORGANIZATION ( #64, #121 ) ;
#41 = FACE_OUTER_BOUND ( 'NONE', #46, .T. ) ;
#42 = VERTEX_POINT ( 'NONE', #152 ) ;
#43 = DIRECTION ( 'NONE',  ( 1.000000000000000000, 1.224646799147353207E-16, -0.000000000000000000 ) ) ;
#44 = AXIS2_PLACEMENT_3D ( 'NONE', #118, #104, #183 ) ;
#45 = EDGE_LOOP ( 'NONE', ( #13, #87, #20 ) ) ;
#46 = EDGE_LOOP ( 'NONE', ( #19, #31, #137 ) ) ;
#47 = VECTOR ( 'NONE', #95, 1000.000000000000000 ) ;
#48 = PERSON_AND_ORGANIZATION ( #64, #121 ) ;
#49 = COORDINATED_UNIVERSAL_TIME_OFFSET ( 8, 0, .AHEAD. ) ;
#50 = DIRECTION ( 'NONE',  ( -0.000000000000000000, 0.000000000000000000, -1.000000000000000000 ) ) ;
#51 = FACE_OUTER_BOUND ( 'NONE', #165, .T. ) ;
#52 = VECTOR ( 'NONE', #184, 1000.000000000000000 ) ;
#53 = FACE_OUTER_BOUND ( 'NONE', #186, .T. ) ;
#54 = PERSON_AND_ORGANIZATION ( #64, #121 ) ;
#55 = VERTEX_POINT ( 'NONE', #60 ) ;
#56 = AXIS2_PLACEMENT_3D ( 'NONE', #38, #50, #81 ) ;
#57 = CARTESIAN_POINT ( 'NONE',  ( -1.950000000000000400, 3.000000000000002665, 0.000000000000000000 ) ) ;
#58 = APPROVAL ( #85, 'Î´Ö¸¶¨' ) ;
#59 = ORIENTED_EDGE ( 'NONE', *, *, #8, .T. ) ;
#60 = CARTESIAN_POINT ( 'NONE',  ( -1.949999999999999956, -3.000000000000003553, 3.673940397442062826E-16 ) ) ;
#61 = CLOSED_SHELL ( 'NONE', ( #153, #161, #135, #113, #190 ) ) ;
#62 = VERTEX_POINT ( 'NONE', #14 ) ;
#63 = CC_DESIGN_PERSON_AND_ORGANIZATION_ASSIGNMENT ( #128, #180, ( #191 ) ) ;
#64 = PERSON ( 'Î´Ö¸¶¨', 'Î´Ö¸¶¨', 'Î´Ö¸¶¨', ('Î´Ö¸¶¨'), ('Î´Ö¸¶¨'), ('Î´Ö¸¶¨') ) ;
#65 = APPLICATION_PROTOCOL_DEFINITION ( 'international standard', 'config_control_design', 1994, #74 ) ;
#66 = AXIS2_PLACEMENT_3D ( 'NONE', #4, #43, #73 ) ;
#67 =( NAMED_UNIT ( * ) SI_UNIT ( $, .STERADIAN. ) SOLID_ANGLE_UNIT ( ) );
#68 = CC_DESIGN_PERSON_AND_ORGANIZATION_ASSIGNMENT ( #25, #146, ( #167 ) ) ;
#69 = DIRECTION ( 'NONE',  ( -1.224646799147353207E-16, 1.000000000000000000, 0.000000000000000000 ) ) ;
#70 = TOROIDAL_SURFACE ( 'NONE', #71, -0.01574819937612906284, 10.33000000000000185 ) ;
#71 = AXIS2_PLACEMENT_3D ( 'NONE', #175, #12, #69 ) ;
#72 = DESIGN_CONTEXT ( 'detailed design', #74, 'design' ) ;
#73 = DIRECTION ( 'NONE',  ( -1.224646799147353207E-16, 1.000000000000000000, 0.000000000000000000 ) ) ;
#74 = APPLICATION_CONTEXT ( 'configuration controlled 3d designs of mechanical parts and assemblies' ) ;
#75 = DIRECTION ( 'NONE',  ( -1.445602896647338917E-16, 1.000000000000000000, 0.000000000000000000 ) ) ;
#76 = EDGE_CURVE ( 'NONE', #62, #123, #26, .T. ) ;
#77 = LOCAL_TIME ( 14, 20, 7.000000000000000000, #124 ) ;
#78 = PERSON_AND_ORGANIZATION ( #64, #121 ) ;
#79 = DATE_AND_TIME ( #154, #77 ) ;
#80 = CC_DESIGN_APPROVAL ( #84, ( #167 ) ) ;
#81 = DIRECTION ( 'NONE',  ( -1.000000000000000000, 0.000000000000000000, 0.000000000000000000 ) ) ;
#82 = DIRECTION ( 'NONE',  ( 1.000000000000000000, 0.000000000000000000, 0.000000000000000000 ) ) ;
#83 = DATE_AND_TIME ( #37, #94 ) ;
#84 = APPROVAL ( #157, 'Î´Ö¸¶¨' ) ;
#85 = APPROVAL_STATUS ( 'not_yet_approved' ) ;
#86 = CARTESIAN_POINT ( 'NONE',  ( -2.704603912737599377E-16, 3.000000000000000000, 0.000000000000000000 ) ) ;
#87 = ORIENTED_EDGE ( 'NONE', *, *, #6, .F. ) ;
#88 = FACE_OUTER_BOUND ( 'NONE', #45, .T. ) ;
#89 = AXIS2_PLACEMENT_3D ( 'NONE', #176, #130, #82 ) ;
#90 = CIRCLE ( 'NONE', #174, 3.000000000000000000 ) ;
#91 = PRODUCT_DEFINITION ( 'Î´Öª', '', #167, #72 ) ;
#92 = VERTEX_POINT ( 'NONE', #57 ) ;
#93 = APPROVAL_DATE_TIME ( #34, #139 ) ;
#94 = LOCAL_TIME ( 14, 20, 7.000000000000000000, #111 ) ;
#95 = DIRECTION ( 'NONE',  ( 1.000000000000000000, 1.224646799147353207E-16, -0.000000000000000000 ) ) ;
#96 = CALENDAR_DATE ( 2024, 10, 5 ) ;
#97 = EDGE_CURVE ( 'NONE', #55, #42, #138, .T. ) ;
#98 = DATE_TIME_ROLE ( 'creation_date' ) ;
#99 = APPROVAL_DATE_TIME ( #83, #58 ) ;
#100 = APPROVAL_PERSON_ORGANIZATION ( #173, #84, #144 ) ;
#101 = ORIENTED_EDGE ( 'NONE', *, *, #76, .T. ) ;
#102 = LINE ( 'NONE', #162, #52 ) ;
#103 = SECURITY_CLASSIFICATION ( '', '', #194 ) ;
#104 = DIRECTION ( 'NONE',  ( -1.499759782661857608E-32, 1.224646799147353207E-16, 1.000000000000000000 ) ) ;
#105 = ORIENTED_EDGE ( 'NONE', *, *, #169, .F. ) ;
#106 = CARTESIAN_POINT ( 'NONE',  ( 1.938672969408920982E-16, 2.374189646580129638E-32, 0.000000000000000000 ) ) ;
#107 = PRODUCT_DEFINITION_SHAPE ( 'NONE', 'NONE',  #91 ) ;
#108 = DIRECTION ( 'NONE',  ( 1.000000000000000000, 1.224646799147353207E-16, -0.000000000000000000 ) ) ;
#109 = APPLICATION_CONTEXT ( 'configuration controlled 3d designs of mechanical parts and assemblies' ) ;
#110 = APPROVAL_PERSON_ORGANIZATION ( #40, #58, #196 ) ;
#111 = COORDINATED_UNIVERSAL_TIME_OFFSET ( 8, 0, .AHEAD. ) ;
#112 = CALENDAR_DATE ( 2024, 10, 5 ) ;
#113 = ADVANCED_FACE ( 'NONE', ( #16 ), #164, .T. ) ;
#114 = APPLICATION_PROTOCOL_DEFINITION ( 'international standard', 'config_control_design', 1994, #109 ) ;
#115 = CALENDAR_DATE ( 2024, 10, 5 ) ;
#116 = ORIENTED_EDGE ( 'NONE', *, *, #127, .T. ) ;
#117 = AXIS2_PLACEMENT_3D ( 'NONE', #129, #1, #182 ) ;
#118 = CARTESIAN_POINT ( 'NONE',  ( -11.82998799584086846, 0.01574819937612761261, -1.928598195831080196E-18 ) ) ;
#119 = EDGE_LOOP ( 'NONE', ( #148, #160, #168, #150 ) ) ;
#120 = CC_DESIGN_DATE_AND_TIME_ASSIGNMENT ( #197, #98, ( #91 ) ) ;
#121 = ORGANIZATION ( 'Î´Ö¸¶¨', 'Î´Ö¸¶¨', '' ) ;
#122 = DIRECTION ( 'NONE',  ( 1.000000000000000000, 1.224646799147353207E-16, -0.000000000000000000 ) ) ;
#123 = VERTEX_POINT ( 'NONE', #188 ) ;
#124 = COORDINATED_UNIVERSAL_TIME_OFFSET ( 8, 0, .AHEAD. ) ;
#125 =( GEOMETRIC_REPRESENTATION_CONTEXT ( 3 ) GLOBAL_UNCERTAINTY_ASSIGNED_CONTEXT ( ( #147 ) ) GLOBAL_UNIT_ASSIGNED_CONTEXT ( ( #145, #179, #67 ) ) REPRESENTATION_CONTEXT ( 'NONE', 'WORKASPACE' ) );
#126 = CARTESIAN_POINT ( 'NONE',  ( -11.82998799584086846, -1.450120405699362180E-15, 0.000000000000000000 ) ) ;
#127 = EDGE_CURVE ( 'NONE', #55, #123, #102, .T. ) ;
#128 = PERSON_AND_ORGANIZATION ( #64, #121 ) ;
#129 = CARTESIAN_POINT ( 'NONE',  ( 0.000000000000000000, 0.000000000000000000, 0.000000000000000000 ) ) ;
#130 = DIRECTION ( 'NONE',  ( 0.000000000000000000, 0.000000000000000000, 1.000000000000000000 ) ) ;
#131 = TOROIDAL_SURFACE ( 'NONE', #189, -0.01574819937612906284, 10.33000000000000185 ) ;
#132 = DATE_AND_TIME ( #115, #163 ) ;
#133 = PERSON_AND_ORGANIZATION_ROLE ( 'creator' ) ;
#134 = DIRECTION ( 'NONE',  ( -1.224646799147353207E-16, 1.000000000000000000, 0.000000000000000000 ) ) ;
#135 = ADVANCED_FACE ( 'NONE', ( #88 ), #70, .F. ) ;
#136 = CARTESIAN_POINT ( 'NONE',  ( -1.949999999999999956, -2.388061258337338643E-16, 0.000000000000000000 ) ) ;
#137 = ORIENTED_EDGE ( 'NONE', *, *, #198, .F. ) ;
#138 = CIRCLE ( 'NONE', #44, 10.33000000000000185 ) ;
#139 = APPROVAL ( #141, 'Î´Ö¸¶¨' ) ;
#140 = SHAPE_DEFINITION_REPRESENTATION ( #107, #187 ) ;
#141 = APPROVAL_STATUS ( 'not_yet_approved' ) ;
#142 = MECHANICAL_CONTEXT ( 'NONE', #109, 'mechanical' ) ;
#143 = CYLINDRICAL_SURFACE ( 'NONE', #117, 3.000000000000000000 ) ;
#144 = APPROVAL_ROLE ( '' ) ;
#145 =( LENGTH_UNIT ( ) NAMED_UNIT ( * ) SI_UNIT ( .MILLI., .METRE. ) );
#146 = PERSON_AND_ORGANIZATION_ROLE ( 'design_supplier' ) ;
#147 = UNCERTAINTY_MEASURE_WITH_UNIT (LENGTH_MEASURE( 1.000000000000000082E-05 ), #145, 'distance_accuracy_value', 'NONE');
#148 = ORIENTED_EDGE ( 'NONE', *, *, #127, .F. ) ;
#149 = DIRECTION ( 'NONE',  ( 1.000000000000000000, 1.224646799147353207E-16, -0.000000000000000000 ) ) ;
#150 = ORIENTED_EDGE ( 'NONE', *, *, #8, .F. ) ;
#151 = APPROVAL_PERSON_ORGANIZATION ( #78, #139, #7 ) ;
#152 = CARTESIAN_POINT ( 'NONE',  ( -1.500000000000000000, -1.836970198721029934E-16, 0.000000000000000000 ) ) ;
#153 = ADVANCED_FACE ( 'NONE', ( #53 ), #143, .T. ) ;
#154 = CALENDAR_DATE ( 2024, 10, 5 ) ;
#155 = PRODUCT_RELATED_PRODUCT_CATEGORY ( 'detail', '', ( #191 ) ) ;
#156 = AXIS2_PLACEMENT_3D ( 'NONE', #29, #108, #75 ) ;
#157 = APPROVAL_STATUS ( 'not_yet_approved' ) ;
#158 = COORDINATED_UNIVERSAL_TIME_OFFSET ( 8, 0, .AHEAD. ) ;
#159 = CIRCLE ( 'NONE', #56, 10.33000000000000185 ) ;
#160 = ORIENTED_EDGE ( 'NONE', *, *, #35, .T. ) ;
#161 = ADVANCED_FACE ( 'NONE', ( #41 ), #131, .F. ) ;
#162 = CARTESIAN_POINT ( 'NONE',  ( 3.673940397442059868E-16, -3.000000000000000000, 3.673940397442059868E-16 ) ) ;
#163 = LOCAL_TIME ( 14, 20, 7.000000000000000000, #9 ) ;
#164 = CYLINDRICAL_SURFACE ( 'NONE', #66, 3.000000000000000000 ) ;
#165 = EDGE_LOOP ( 'NONE', ( #101, #59 ) ) ;
#166 = DIRECTION ( 'NONE',  ( 1.000000000000000000, 1.224646799147353207E-16, -0.000000000000000000 ) ) ;
#167 = PRODUCT_DEFINITION_FORMATION_WITH_SPECIFIED_SOURCE ( 'ÈÎºÎ', '', #191, .NOT_KNOWN. ) ;
#168 = ORIENTED_EDGE ( 'NONE', *, *, #169, .T. ) ;
#169 = EDGE_CURVE ( 'NONE', #92, #62, #36, .T. ) ;
#170 = MANIFOLD_SOLID_BREP ( 'Ðý×ª1', #61 ) ;
#171 = LOCAL_TIME ( 14, 20, 7.000000000000000000, #158 ) ;
#172 = PERSON_AND_ORGANIZATION_ROLE ( 'classification_officer' ) ;
#173 = PERSON_AND_ORGANIZATION ( #64, #121 ) ;
#174 = AXIS2_PLACEMENT_3D ( 'NONE', #106, #166, #28 ) ;
#175 = CARTESIAN_POINT ( 'NONE',  ( -11.82998799584086846, -1.450120405699362180E-15, 0.000000000000000000 ) ) ;
#176 = CARTESIAN_POINT ( 'NONE',  ( 0.000000000000000000, 0.000000000000000000, 0.000000000000000000 ) ) ;
#177 = PERSON_AND_ORGANIZATION ( #64, #121 ) ;
#178 = CC_DESIGN_DATE_AND_TIME_ASSIGNMENT ( #79, #193, ( #103 ) ) ;
#179 =( NAMED_UNIT ( * ) PLANE_ANGLE_UNIT ( ) SI_UNIT ( $, .RADIAN. ) );
#180 = PERSON_AND_ORGANIZATION_ROLE ( 'design_owner' ) ;
#181 = CIRCLE ( 'NONE', #156, 3.000000000000000444 ) ;
#182 = DIRECTION ( 'NONE',  ( -1.224646799147353207E-16, 1.000000000000000000, 0.000000000000000000 ) ) ;
#183 = DIRECTION ( 'NONE',  ( 0.000000000000000000, -1.000000000000000000, 1.224646799147353207E-16 ) ) ;
#184 = DIRECTION ( 'NONE',  ( 1.000000000000000000, 1.224646799147353207E-16, -0.000000000000000000 ) ) ;
#185 = CARTESIAN_POINT ( 'NONE',  ( 1.938672969408920982E-16, 2.374189646580129638E-32, 0.000000000000000000 ) ) ;
#186 = EDGE_LOOP ( 'NONE', ( #27, #116, #30, #105 ) ) ;
#187 = ADVANCED_BREP_SHAPE_REPRESENTATION ( '120350', ( #170, #89 ), #125 ) ;
#188 = CARTESIAN_POINT ( 'NONE',  ( 5.612613366850981343E-16, -3.000000000000000000, 3.673940397442059868E-16 ) ) ;
#189 = AXIS2_PLACEMENT_3D ( 'NONE', #126, #11, #23 ) ;
#190 = ADVANCED_FACE ( 'NONE', ( #51 ), #22, .T. ) ;
#191 = PRODUCT ( '120350', '120350', '', ( #142 ) ) ;
#192 = CC_DESIGN_APPROVAL ( #58, ( #91 ) ) ;
#193 = DATE_TIME_ROLE ( 'classification_date' ) ;
#194 = SECURITY_CLASSIFICATION_LEVEL ( 'unclassified' ) ;
#195 = DIRECTION ( 'NONE',  ( -1.224646799147353207E-16, 1.000000000000000000, 0.000000000000000000 ) ) ;
#196 = APPROVAL_ROLE ( '' ) ;
#197 = DATE_AND_TIME ( #96, #171 ) ;
#198 = EDGE_CURVE ( 'NONE', #92, #42, #159, .T. ) ;
#199 = CIRCLE ( 'NONE', #32, 3.000000000000000444 ) ;
#200 = CC_DESIGN_PERSON_AND_ORGANIZATION_ASSIGNMENT ( #177, #39, ( #167 ) ) ;
#201 = APPROVAL_DATE_TIME ( #132, #84 ) ;
ENDSEC;
END-ISO-10303-21;
