ISO-10303-21;
HEADER;
FILE_DESCRIPTION (( 'STEP AP203' ),
    '1' );
FILE_NAME ('120352.STEP',
    '2024-05-10T06:31:38',
    ( '' ),
    ( '' ),
    'SwSTEP 2.0',
    'SolidWorks 2020',
    '' );
FILE_SCHEMA (( 'CONFIG_CONTROL_DESIGN' ));
ENDSEC;

DATA;
#1 = ORIENTED_EDGE ( 'NONE', *, *, #132, .T. ) ;
#2 = ADVANCED_FACE ( 'NONE', ( #129 ), #44, .F. ) ;
#3 = VERTEX_POINT ( 'NONE', #108 ) ;
#4 = ORIENTED_EDGE ( 'NONE', *, *, #54, .F. ) ;
#5 = COORDINATED_UNIVERSAL_TIME_OFFSET ( 8, 0, .AHEAD. ) ;
#6 = APPLICATION_PROTOCOL_DEFINITION ( 'international standard', 'config_control_design', 1994, #119 ) ;
#7 = PERSON_AND_ORGANIZATION ( #175, #87 ) ;
#8 = MANIFOLD_SOLID_BREP ( 'Ðý×ª1', #142 ) ;
#9 = PERSON_AND_ORGANIZATION ( #175, #87 ) ;
#10 = PERSON_AND_ORGANIZATION ( #175, #87 ) ;
#11 = VECTOR ( 'NONE', #170, 1000.000000000000000 ) ;
#12 = CARTESIAN_POINT ( 'NONE',  ( -2.884193875831626264E-16, 3.000000000000000000, 0.000000000000000000 ) ) ;
#13 = DIRECTION ( 'NONE',  ( -1.224646799147353207E-16, 1.000000000000000000, 0.000000000000000000 ) ) ;
#14 = CC_DESIGN_PERSON_AND_ORGANIZATION_ASSIGNMENT ( #7, #101, ( #60 ) ) ;
#15 = FACE_OUTER_BOUND ( 'NONE', #144, .T. ) ;
#16 = LINE ( 'NONE', #136, #11 ) ;
#17 = APPROVAL ( #162, 'Î´Ö¸¶¨' ) ;
#18 = ORIENTED_EDGE ( 'NONE', *, *, #117, .F. ) ;
#19 = EDGE_LOOP ( 'NONE', ( #47, #125, #176, #18 ) ) ;
#20 = VERTEX_POINT ( 'NONE', #97 ) ;
#21 = CALENDAR_DATE ( 2024, 10, 5 ) ;
#22 = PERSON_AND_ORGANIZATION_ROLE ( 'classification_officer' ) ;
#23 = DATE_AND_TIME ( #177, #56 ) ;
#24 = EDGE_CURVE ( 'NONE', #3, #127, #51, .T. ) ;
#25 = PERSON_AND_ORGANIZATION_ROLE ( 'creator' ) ;
#26 = CC_DESIGN_APPROVAL ( #166, ( #183 ) ) ;
#27 = LINE ( 'NONE', #106, #126 ) ;
#28 = CARTESIAN_POINT ( 'NONE',  ( 0.000000000000000000, 0.000000000000000000, 0.000000000000000000 ) ) ;
#29 = ADVANCED_BREP_SHAPE_REPRESENTATION ( '120352', ( #8, #34 ), #161 ) ;
#30 = CARTESIAN_POINT ( 'NONE',  ( -22.14999904914677842, -0.006266596937429822281, 0.000000000000000000 ) ) ;
#31 = DIRECTION ( 'NONE',  ( 1.000000000000000000, 1.224646799147353207E-16, -0.000000000000000000 ) ) ;
#32 = APPROVAL ( #184, 'Î´Ö¸¶¨' ) ;
#33 = APPROVAL_ROLE ( '' ) ;
#34 = AXIS2_PLACEMENT_3D ( 'NONE', #186, #104, #84 ) ;
#35 = CIRCLE ( 'NONE', #57, 3.000000000000000000 ) ;
#36 = PERSON_AND_ORGANIZATION ( #175, #87 ) ;
#37 = PERSON_AND_ORGANIZATION_ROLE ( 'creator' ) ;
#38 = ADVANCED_FACE ( 'NONE', ( #71 ), #120, .T. ) ;
#39 = PERSON_AND_ORGANIZATION ( #175, #87 ) ;
#40 = CARTESIAN_POINT ( 'NONE',  ( -1.719999999999999529, -2.106392494533446797E-16, 0.000000000000000000 ) ) ;
#41 = AXIS2_PLACEMENT_3D ( 'NONE', #30, #93, #155 ) ;
#42 = FACE_OUTER_BOUND ( 'NONE', #141, .T. ) ;
#43 = CYLINDRICAL_SURFACE ( 'NONE', #70, 3.000000000000000000 ) ;
#44 = TOROIDAL_SURFACE ( 'NONE', #79, -0.006266596937427110041, 20.64999999999999858 ) ;
#45 = CC_DESIGN_PERSON_AND_ORGANIZATION_ASSIGNMENT ( #99, #37, ( #200 ) ) ;
#46 = ORIENTED_EDGE ( 'NONE', *, *, #191, .F. ) ;
#47 = ORIENTED_EDGE ( 'NONE', *, *, #54, .T. ) ;
#48 = CC_DESIGN_APPROVAL ( #32, ( #200 ) ) ;
#49 = APPROVAL_STATUS ( 'not_yet_approved' ) ;
#50 = CALENDAR_DATE ( 2024, 10, 5 ) ;
#51 = CIRCLE ( 'NONE', #115, 3.000000000000000000 ) ;
#52 = DIRECTION ( 'NONE',  ( 0.000000000000000000, -1.000000000000000000, 1.224646799147353207E-16 ) ) ;
#53 = LOCAL_TIME ( 14, 31, 38.00000000000000000, #67 ) ;
#54 = EDGE_CURVE ( 'NONE', #111, #158, #172, .T. ) ;
#55 = DIRECTION ( 'NONE',  ( -1.224646799147353207E-16, 1.000000000000000000, 0.000000000000000000 ) ) ;
#56 = LOCAL_TIME ( 14, 31, 38.00000000000000000, #133 ) ;
#57 = AXIS2_PLACEMENT_3D ( 'NONE', #198, #75, #201 ) ;
#58 =( NAMED_UNIT ( * ) PLANE_ANGLE_UNIT ( ) SI_UNIT ( $, .RADIAN. ) );
#59 = EDGE_LOOP ( 'NONE', ( #63, #1, #80 ) ) ;
#60 = PRODUCT ( '120352', '120352', '', ( #130 ) ) ;
#61 = EDGE_LOOP ( 'NONE', ( #62, #78 ) ) ;
#62 = ORIENTED_EDGE ( 'NONE', *, *, #197, .T. ) ;
#63 = ORIENTED_EDGE ( 'NONE', *, *, #72, .F. ) ;
#64 = CALENDAR_DATE ( 2024, 10, 5 ) ;
#65 = APPROVAL_DATE_TIME ( #23, #166 ) ;
#66 = CC_DESIGN_PERSON_AND_ORGANIZATION_ASSIGNMENT ( #39, #22, ( #168 ) ) ;
#67 = COORDINATED_UNIVERSAL_TIME_OFFSET ( 8, 0, .AHEAD. ) ;
#68 = CIRCLE ( 'NONE', #41, 20.64999999999999858 ) ;
#69 = CARTESIAN_POINT ( 'NONE',  ( 0.000000000000000000, 0.000000000000000000, 0.000000000000000000 ) ) ;
#70 = AXIS2_PLACEMENT_3D ( 'NONE', #69, #138, #92 ) ;
#71 = FACE_OUTER_BOUND ( 'NONE', #19, .T. ) ;
#72 = EDGE_CURVE ( 'NONE', #158, #111, #82, .T. ) ;
#73 = DIRECTION ( 'NONE',  ( 1.000000000000000000, 1.224646799147353207E-16, -0.000000000000000000 ) ) ;
#74 = DIRECTION ( 'NONE',  ( 1.000000000000000000, 1.224646799147353207E-16, -0.000000000000000000 ) ) ;
#75 = DIRECTION ( 'NONE',  ( 1.000000000000000000, 1.224646799147353207E-16, -0.000000000000000000 ) ) ;
#76 = LOCAL_TIME ( 14, 31, 38.00000000000000000, #114 ) ;
#77 = ORIENTED_EDGE ( 'NONE', *, *, #72, .T. ) ;
#78 = ORIENTED_EDGE ( 'NONE', *, *, #24, .T. ) ;
#79 = AXIS2_PLACEMENT_3D ( 'NONE', #157, #140, #189 ) ;
#80 = ORIENTED_EDGE ( 'NONE', *, *, #169, .F. ) ;
#81 = ORIENTED_EDGE ( 'NONE', *, *, #132, .F. ) ;
#82 = CIRCLE ( 'NONE', #195, 3.000000000000000000 ) ;
#83 = APPROVAL_ROLE ( '' ) ;
#84 = DIRECTION ( 'NONE',  ( 1.000000000000000000, 0.000000000000000000, 0.000000000000000000 ) ) ;
#85 = CC_DESIGN_SECURITY_CLASSIFICATION ( #168, ( #200 ) ) ;
#86 = APPROVAL_DATE_TIME ( #165, #17 ) ;
#87 = ORGANIZATION ( 'Î´Ö¸¶¨', 'Î´Ö¸¶¨', '' ) ;
#88 = AXIS2_PLACEMENT_3D ( 'NONE', #12, #188, #13 ) ;
#89 = AXIS2_PLACEMENT_3D ( 'NONE', #28, #73, #55 ) ;
#90 = CARTESIAN_POINT ( 'NONE',  ( -1.720000000000001084, -2.999999999999996891, 3.673940397442055431E-16 ) ) ;
#91 = ADVANCED_FACE ( 'NONE', ( #15 ), #43, .T. ) ;
#92 = DIRECTION ( 'NONE',  ( -1.224646799147353207E-16, 1.000000000000000000, 0.000000000000000000 ) ) ;
#93 = DIRECTION ( 'NONE',  ( -0.000000000000000000, 0.000000000000000000, -1.000000000000000000 ) ) ;
#94 =( LENGTH_UNIT ( ) NAMED_UNIT ( * ) SI_UNIT ( .MILLI., .METRE. ) );
#95 = CARTESIAN_POINT ( 'NONE',  ( 1.579493043220866468E-16, 1.934321099655946197E-32, 0.000000000000000000 ) ) ;
#96 = ADVANCED_FACE ( 'NONE', ( #42 ), #163, .F. ) ;
#97 = CARTESIAN_POINT ( 'NONE',  ( -1.500000000000000000, -1.836970198721030181E-16, 0.000000000000000000 ) ) ;
#98 = COORDINATED_UNIVERSAL_TIME_OFFSET ( 8, 0, .AHEAD. ) ;
#99 = PERSON_AND_ORGANIZATION ( #175, #87 ) ;
#100 = AXIS2_PLACEMENT_3D ( 'NONE', #196, #74, #137 ) ;
#101 = PERSON_AND_ORGANIZATION_ROLE ( 'design_owner' ) ;
#102 = DATE_TIME_ROLE ( 'classification_date' ) ;
#103 = CC_DESIGN_PERSON_AND_ORGANIZATION_ASSIGNMENT ( #179, #164, ( #200 ) ) ;
#104 = DIRECTION ( 'NONE',  ( 0.000000000000000000, 0.000000000000000000, 1.000000000000000000 ) ) ;
#105 = APPLICATION_CONTEXT ( 'configuration controlled 3d designs of mechanical parts and assemblies' ) ;
#106 = CARTESIAN_POINT ( 'NONE',  ( -3.673940397442059868E-16, 3.000000000000000000, 0.000000000000000000 ) ) ;
#107 = CARTESIAN_POINT ( 'NONE',  ( -22.14999904914677842, 0.006266596937424397801, -7.674367880966716681E-19 ) ) ;
#108 = CARTESIAN_POINT ( 'NONE',  ( 5.253433440662925596E-16, -3.000000000000000000, 3.673940397442059868E-16 ) ) ;
#109 = DIRECTION ( 'NONE',  ( -1.224646799147353207E-16, 1.000000000000000000, 0.000000000000000000 ) ) ;
#110 = APPROVAL_PERSON_ORGANIZATION ( #10, #17, #148 ) ;
#111 = VERTEX_POINT ( 'NONE', #199 ) ;
#112 = ORIENTED_EDGE ( 'NONE', *, *, #117, .T. ) ;
#113 = APPROVAL_PERSON_ORGANIZATION ( #36, #32, #83 ) ;
#114 = COORDINATED_UNIVERSAL_TIME_OFFSET ( 8, 0, .AHEAD. ) ;
#115 = AXIS2_PLACEMENT_3D ( 'NONE', #95, #174, #109 ) ;
#116 = DATE_AND_TIME ( #50, #139 ) ;
#117 = EDGE_CURVE ( 'NONE', #111, #127, #27, .T. ) ;
#118 = DIRECTION ( 'NONE',  ( 1.000000000000000000, 1.224646799147353207E-16, -0.000000000000000000 ) ) ;
#119 = APPLICATION_CONTEXT ( 'configuration controlled 3d designs of mechanical parts and assemblies' ) ;
#120 = CYLINDRICAL_SURFACE ( 'NONE', #89, 3.000000000000000000 ) ;
#121 = CARTESIAN_POINT ( 'NONE',  ( -1.719999999999999529, -2.106392494533446797E-16, 0.000000000000000000 ) ) ;
#122 = DIRECTION ( 'NONE',  ( -1.445602896647339163E-16, 1.000000000000000000, 0.000000000000000000 ) ) ;
#123 = AXIS2_PLACEMENT_3D ( 'NONE', #107, #152, #52 ) ;
#124 =( NAMED_UNIT ( * ) SI_UNIT ( $, .STERADIAN. ) SOLID_ANGLE_UNIT ( ) );
#125 = ORIENTED_EDGE ( 'NONE', *, *, #191, .T. ) ;
#126 = VECTOR ( 'NONE', #187, 1000.000000000000000 ) ;
#127 = VERTEX_POINT ( 'NONE', #154 ) ;
#128 = CC_DESIGN_DATE_AND_TIME_ASSIGNMENT ( #180, #193, ( #183 ) ) ;
#129 = FACE_OUTER_BOUND ( 'NONE', #59, .T. ) ;
#130 = MECHANICAL_CONTEXT ( 'NONE', #119, 'mechanical' ) ;
#131 = CALENDAR_DATE ( 2024, 10, 5 ) ;
#132 = EDGE_CURVE ( 'NONE', #158, #20, #150, .T. ) ;
#133 = COORDINATED_UNIVERSAL_TIME_OFFSET ( 8, 0, .AHEAD. ) ;
#134 = DESIGN_CONTEXT ( 'detailed design', #105, 'design' ) ;
#135 = DIRECTION ( 'NONE',  ( -1.445602896647339163E-16, 1.000000000000000000, 0.000000000000000000 ) ) ;
#136 = CARTESIAN_POINT ( 'NONE',  ( 3.673940397442059868E-16, -3.000000000000000000, 3.673940397442059868E-16 ) ) ;
#137 = DIRECTION ( 'NONE',  ( -1.224646799147353207E-16, 1.000000000000000000, 0.000000000000000000 ) ) ;
#138 = DIRECTION ( 'NONE',  ( 1.000000000000000000, 1.224646799147353207E-16, -0.000000000000000000 ) ) ;
#139 = LOCAL_TIME ( 14, 31, 38.00000000000000000, #98 ) ;
#140 = DIRECTION ( 'NONE',  ( 1.000000000000000000, 1.224646799147353207E-16, -0.000000000000000000 ) ) ;
#141 = EDGE_LOOP ( 'NONE', ( #81, #4, #190 ) ) ;
#142 = CLOSED_SHELL ( 'NONE', ( #38, #2, #96, #91, #153 ) ) ;
#143 = CC_DESIGN_PERSON_AND_ORGANIZATION_ASSIGNMENT ( #167, #25, ( #183 ) ) ;
#144 = EDGE_LOOP ( 'NONE', ( #46, #77, #112, #156 ) ) ;
#145 = PRODUCT_DEFINITION_SHAPE ( 'NONE', 'NONE',  #183 ) ;
#146 = DATE_AND_TIME ( #131, #53 ) ;
#147 = CC_DESIGN_DATE_AND_TIME_ASSIGNMENT ( #146, #102, ( #168 ) ) ;
#148 = APPROVAL_ROLE ( '' ) ;
#149 = SHAPE_DEFINITION_REPRESENTATION ( #145, #29 ) ;
#150 = CIRCLE ( 'NONE', #123, 20.64999999999999858 ) ;
#151 = PLANE ( 'NONE',  #88 ) ;
#152 = DIRECTION ( 'NONE',  ( -1.499759782661857608E-32, 1.224646799147353207E-16, 1.000000000000000000 ) ) ;
#153 = ADVANCED_FACE ( 'NONE', ( #171 ), #151, .T. ) ;
#154 = CARTESIAN_POINT ( 'NONE',  ( -2.094447354221193154E-16, 3.000000000000000000, 0.000000000000000000 ) ) ;
#155 = DIRECTION ( 'NONE',  ( -1.000000000000000000, 0.000000000000000000, 0.000000000000000000 ) ) ;
#156 = ORIENTED_EDGE ( 'NONE', *, *, #24, .F. ) ;
#157 = CARTESIAN_POINT ( 'NONE',  ( -22.14999904914677842, -2.712199497108269686E-15, 0.000000000000000000 ) ) ;
#158 = VERTEX_POINT ( 'NONE', #90 ) ;
#159 = SECURITY_CLASSIFICATION_LEVEL ( 'unclassified' ) ;
#160 = UNCERTAINTY_MEASURE_WITH_UNIT (LENGTH_MEASURE( 1.000000000000000082E-05 ), #94, 'distance_accuracy_value', 'NONE');
#161 =( GEOMETRIC_REPRESENTATION_CONTEXT ( 3 ) GLOBAL_UNCERTAINTY_ASSIGNED_CONTEXT ( ( #160 ) ) GLOBAL_UNIT_ASSIGNED_CONTEXT ( ( #94, #58, #124 ) ) REPRESENTATION_CONTEXT ( 'NONE', 'WORKASPACE' ) );
#162 = APPROVAL_STATUS ( 'not_yet_approved' ) ;
#163 = TOROIDAL_SURFACE ( 'NONE', #100, -0.006266596937427110041, 20.64999999999999858 ) ;
#164 = PERSON_AND_ORGANIZATION_ROLE ( 'design_supplier' ) ;
#165 = DATE_AND_TIME ( #21, #173 ) ;
#166 = APPROVAL ( #49, 'Î´Ö¸¶¨' ) ;
#167 = PERSON_AND_ORGANIZATION ( #175, #87 ) ;
#168 = SECURITY_CLASSIFICATION ( '', '', #159 ) ;
#169 = EDGE_CURVE ( 'NONE', #111, #20, #68, .T. ) ;
#170 = DIRECTION ( 'NONE',  ( 1.000000000000000000, 1.224646799147353207E-16, -0.000000000000000000 ) ) ;
#171 = FACE_OUTER_BOUND ( 'NONE', #61, .T. ) ;
#172 = CIRCLE ( 'NONE', #181, 3.000000000000000000 ) ;
#173 = LOCAL_TIME ( 14, 31, 38.00000000000000000, #5 ) ;
#174 = DIRECTION ( 'NONE',  ( 1.000000000000000000, 1.224646799147353207E-16, -0.000000000000000000 ) ) ;
#175 = PERSON ( 'Î´Ö¸¶¨', 'Î´Ö¸¶¨', 'Î´Ö¸¶¨', ('Î´Ö¸¶¨'), ('Î´Ö¸¶¨'), ('Î´Ö¸¶¨') ) ;
#176 = ORIENTED_EDGE ( 'NONE', *, *, #197, .F. ) ;
#177 = CALENDAR_DATE ( 2024, 10, 5 ) ;
#178 = APPROVAL_PERSON_ORGANIZATION ( #9, #166, #33 ) ;
#179 = PERSON_AND_ORGANIZATION ( #175, #87 ) ;
#180 = DATE_AND_TIME ( #64, #76 ) ;
#181 = AXIS2_PLACEMENT_3D ( 'NONE', #121, #118, #135 ) ;
#182 = APPROVAL_DATE_TIME ( #116, #32 ) ;
#183 = PRODUCT_DEFINITION ( 'Î´Öª', '', #200, #134 ) ;
#184 = APPROVAL_STATUS ( 'not_yet_approved' ) ;
#185 = PRODUCT_RELATED_PRODUCT_CATEGORY ( 'detail', '', ( #60 ) ) ;
#186 = CARTESIAN_POINT ( 'NONE',  ( 0.000000000000000000, 0.000000000000000000, 0.000000000000000000 ) ) ;
#187 = DIRECTION ( 'NONE',  ( 1.000000000000000000, 1.224646799147353207E-16, -0.000000000000000000 ) ) ;
#188 = DIRECTION ( 'NONE',  ( 1.000000000000000000, 1.224646799147353207E-16, -0.000000000000000000 ) ) ;
#189 = DIRECTION ( 'NONE',  ( -1.224646799147353207E-16, 1.000000000000000000, 0.000000000000000000 ) ) ;
#190 = ORIENTED_EDGE ( 'NONE', *, *, #169, .T. ) ;
#191 = EDGE_CURVE ( 'NONE', #158, #3, #16, .T. ) ;
#192 = CC_DESIGN_APPROVAL ( #17, ( #168 ) ) ;
#193 = DATE_TIME_ROLE ( 'creation_date' ) ;
#194 = APPLICATION_PROTOCOL_DEFINITION ( 'international standard', 'config_control_design', 1994, #105 ) ;
#195 = AXIS2_PLACEMENT_3D ( 'NONE', #40, #31, #122 ) ;
#196 = CARTESIAN_POINT ( 'NONE',  ( -22.14999904914677842, -2.712199497108269686E-15, 0.000000000000000000 ) ) ;
#197 = EDGE_CURVE ( 'NONE', #127, #3, #35, .T. ) ;
#198 = CARTESIAN_POINT ( 'NONE',  ( 1.579493043220866468E-16, 1.934321099655946197E-32, 0.000000000000000000 ) ) ;
#199 = CARTESIAN_POINT ( 'NONE',  ( -1.720000000000001528, 2.999999999999996447, 0.000000000000000000 ) ) ;
#200 = PRODUCT_DEFINITION_FORMATION_WITH_SPECIFIED_SOURCE ( 'ÈÎºÎ', '', #60, .NOT_KNOWN. ) ;
#201 = DIRECTION ( 'NONE',  ( -1.224646799147353207E-16, 1.000000000000000000, 0.000000000000000000 ) ) ;
ENDSEC;
END-ISO-10303-21;
