ISO-10303-21;
HEADER;
FILE_DESCRIPTION (( 'STEP AP203' ),
    '1' );
FILE_NAME ('120353.STEP',
    '2024-05-10T06:34:57',
    ( '' ),
    ( '' ),
    'SwSTEP 2.0',
    'SolidWorks 2020',
    '' );
FILE_SCHEMA (( 'CONFIG_CONTROL_DESIGN' ));
ENDSEC;

DATA;
#1 = CIRCLE ( 'NONE', #38, 15.00000000000000000 ) ;
#2 = EDGE_CURVE ( 'NONE', #155, #78, #154, .T. ) ;
#3 = DIRECTION ( 'NONE',  ( -1.156482317317871232E-16, 1.000000000000000000, 0.000000000000000000 ) ) ;
#4 =( NAMED_UNIT ( * ) SI_UNIT ( $, .STERADIAN. ) SOLID_ANGLE_UNIT ( ) );
#5 = CARTESIAN_POINT ( 'NONE',  ( -28.33999998761622408, -3.470611622256088852E-15, 0.000000000000000000 ) ) ;
#6 = APPROVAL_ROLE ( '' ) ;
#7 = CIRCLE ( 'NONE', #108, 15.00000000000000178 ) ;
#8 = DIRECTION ( 'NONE',  ( -1.224646799147352961E-16, 1.000000000000000000, 0.000000000000000000 ) ) ;
#9 = SECURITY_CLASSIFICATION_LEVEL ( 'unclassified' ) ;
#10 = DIRECTION ( 'NONE',  ( 1.000000000000000000, 1.224646799147353207E-16, -0.000000000000000000 ) ) ;
#11 = COORDINATED_UNIVERSAL_TIME_OFFSET ( 8, 0, .AHEAD. ) ;
#12 = DATE_AND_TIME ( #161, #120 ) ;
#13 = ORIENTED_EDGE ( 'NONE', *, *, #45, .F. ) ;
#14 = EDGE_CURVE ( 'NONE', #149, #78, #83, .T. ) ;
#15 = ORIENTED_EDGE ( 'NONE', *, *, #167, .F. ) ;
#16 = FACE_OUTER_BOUND ( 'NONE', #172, .T. ) ;
#17 = VECTOR ( 'NONE', #51, 1000.000000000000000 ) ;
#18 = EDGE_LOOP ( 'NONE', ( #50, #119 ) ) ;
#19 = CYLINDRICAL_SURFACE ( 'NONE', #20, 15.00000000000000000 ) ;
#20 = AXIS2_PLACEMENT_3D ( 'NONE', #34, #184, #53 ) ;
#21 = APPROVAL_STATUS ( 'not_yet_approved' ) ;
#22 = CARTESIAN_POINT ( 'NONE',  ( -28.33999998761622408, -0.0007999960371929404346, 0.000000000000000000 ) ) ;
#23 = ADVANCED_FACE ( 'NONE', ( #16 ), #19, .T. ) ;
#24 = DIRECTION ( 'NONE',  ( 1.000000000000000000, 1.224646799147353207E-16, -0.000000000000000000 ) ) ;
#25 = PERSON ( 'Î´Ö¸¶¨', 'Î´Ö¸¶¨', 'Î´Ö¸¶¨', ('Î´Ö¸¶¨'), ('Î´Ö¸¶¨'), ('Î´Ö¸¶¨') ) ;
#26 = CC_DESIGN_APPROVAL ( #127, ( #138 ) ) ;
#27 = PRODUCT ( '120353', '120353', '', ( #104 ) ) ;
#28 = CC_DESIGN_PERSON_AND_ORGANIZATION_ASSIGNMENT ( #57, #96, ( #27 ) ) ;
#29 = CALENDAR_DATE ( 2024, 10, 5 ) ;
#30 = CC_DESIGN_SECURITY_CLASSIFICATION ( #138, ( #66 ) ) ;
#31 = CARTESIAN_POINT ( 'NONE',  ( -1.836970198721029589E-15, 15.00000000000000000, 0.000000000000000000 ) ) ;
#32 = PERSON_AND_ORGANIZATION ( #25, #199 ) ;
#33 = EDGE_CURVE ( 'NONE', #149, #47, #129, .T. ) ;
#34 = CARTESIAN_POINT ( 'NONE',  ( 0.000000000000000000, 0.000000000000000000, 0.000000000000000000 ) ) ;
#35 = DIRECTION ( 'NONE',  ( -0.000000000000000000, 0.000000000000000000, -1.000000000000000000 ) ) ;
#36 = ORIENTED_EDGE ( 'NONE', *, *, #33, .T. ) ;
#37 = CYLINDRICAL_SURFACE ( 'NONE', #44, 15.00000000000000000 ) ;
#38 = AXIS2_PLACEMENT_3D ( 'NONE', #40, #158, #8 ) ;
#39 = FACE_OUTER_BOUND ( 'NONE', #58, .T. ) ;
#40 = CARTESIAN_POINT ( 'NONE',  ( 3.673940397442059375E-16, 4.499279347985572276E-32, 0.000000000000000000 ) ) ;
#41 = CARTESIAN_POINT ( 'NONE',  ( -7.299999999999998934, -8.939921633775676859E-16, 0.000000000000000000 ) ) ;
#42 = PERSON_AND_ORGANIZATION ( #25, #199 ) ;
#43 = COORDINATED_UNIVERSAL_TIME_OFFSET ( 8, 0, .AHEAD. ) ;
#44 = AXIS2_PLACEMENT_3D ( 'NONE', #151, #191, #88 ) ;
#45 = EDGE_CURVE ( 'NONE', #47, #201, #87, .T. ) ;
#46 = PERSON_AND_ORGANIZATION_ROLE ( 'design_supplier' ) ;
#47 = VERTEX_POINT ( 'NONE', #183 ) ;
#48 = LOCAL_TIME ( 14, 34, 57.00000000000000000, #102 ) ;
#49 = ADVANCED_FACE ( 'NONE', ( #170 ), #37, .T. ) ;
#50 = ORIENTED_EDGE ( 'NONE', *, *, #99, .T. ) ;
#51 = DIRECTION ( 'NONE',  ( 1.000000000000000000, 1.224646799147353207E-16, -0.000000000000000000 ) ) ;
#52 = ADVANCED_BREP_SHAPE_REPRESENTATION ( '120353', ( #148, #150 ), #135 ) ;
#53 = DIRECTION ( 'NONE',  ( -1.224646799147352961E-16, 1.000000000000000000, 0.000000000000000000 ) ) ;
#54 = COORDINATED_UNIVERSAL_TIME_OFFSET ( 8, 0, .AHEAD. ) ;
#55 = ORIENTED_EDGE ( 'NONE', *, *, #14, .T. ) ;
#56 = CC_DESIGN_PERSON_AND_ORGANIZATION_ASSIGNMENT ( #139, #75, ( #185 ) ) ;
#57 = PERSON_AND_ORGANIZATION ( #25, #199 ) ;
#58 = EDGE_LOOP ( 'NONE', ( #97, #198, #131 ) ) ;
#59 = CARTESIAN_POINT ( 'NONE',  ( -1.469576158976823750E-15, 15.00000000000000000, 0.000000000000000000 ) ) ;
#60 = DIRECTION ( 'NONE',  ( 1.000000000000000000, 1.224646799147353207E-16, -0.000000000000000000 ) ) ;
#61 = APPROVAL_ROLE ( '' ) ;
#62 = DIRECTION ( 'NONE',  ( -1.224646799147353207E-16, 1.000000000000000000, 0.000000000000000000 ) ) ;
#63 = CARTESIAN_POINT ( 'NONE',  ( 0.000000000000000000, 0.000000000000000000, 0.000000000000000000 ) ) ;
#64 = CIRCLE ( 'NONE', #196, 15.00000000000000178 ) ;
#65 = CC_DESIGN_DATE_AND_TIME_ASSIGNMENT ( #12, #115, ( #185 ) ) ;
#66 = PRODUCT_DEFINITION_FORMATION_WITH_SPECIFIED_SOURCE ( 'ÈÎºÎ', '', #27, .NOT_KNOWN. ) ;
#67 = EDGE_CURVE ( 'NONE', #155, #149, #64, .T. ) ;
#68 = DIRECTION ( 'NONE',  ( -1.499759782661857608E-32, 1.224646799147353207E-16, 1.000000000000000000 ) ) ;
#69 = DIRECTION ( 'NONE',  ( 1.000000000000000000, 1.224646799147353207E-16, -0.000000000000000000 ) ) ;
#70 = APPROVAL ( #21, 'Î´Ö¸¶¨' ) ;
#71 = LOCAL_TIME ( 14, 34, 57.00000000000000000, #11 ) ;
#72 = CARTESIAN_POINT ( 'NONE',  ( -28.33999998761622408, -3.470611622256088852E-15, 0.000000000000000000 ) ) ;
#73 = PERSON_AND_ORGANIZATION_ROLE ( 'creator' ) ;
#74 = DIRECTION ( 'NONE',  ( -1.156482317317871232E-16, 1.000000000000000000, 0.000000000000000000 ) ) ;
#75 = PERSON_AND_ORGANIZATION_ROLE ( 'creator' ) ;
#76 =( LENGTH_UNIT ( ) NAMED_UNIT ( * ) SI_UNIT ( .MILLI., .METRE. ) );
#77 = APPROVAL_DATE_TIME ( #179, #127 ) ;
#78 = VERTEX_POINT ( 'NONE', #156 ) ;
#79 = APPROVAL_STATUS ( 'not_yet_approved' ) ;
#80 = DESIGN_CONTEXT ( 'detailed design', #180, 'design' ) ;
#81 = ORIENTED_EDGE ( 'NONE', *, *, #33, .F. ) ;
#82 = ADVANCED_FACE ( 'NONE', ( #137 ), #90, .F. ) ;
#83 = CIRCLE ( 'NONE', #188, 25.84000000000000341 ) ;
#84 = CARTESIAN_POINT ( 'NONE',  ( -28.33999998761622408, 0.0007999960371859992639, -9.797125862746511596E-20 ) ) ;
#85 = SHAPE_DEFINITION_REPRESENTATION ( #175, #52 ) ;
#86 = DIRECTION ( 'NONE',  ( -1.224646799147353207E-16, 1.000000000000000000, 0.000000000000000000 ) ) ;
#87 = CIRCLE ( 'NONE', #160, 15.00000000000000000 ) ;
#88 = DIRECTION ( 'NONE',  ( -1.224646799147352961E-16, 1.000000000000000000, 0.000000000000000000 ) ) ;
#89 = COORDINATED_UNIVERSAL_TIME_OFFSET ( 8, 0, .AHEAD. ) ;
#90 = TOROIDAL_SURFACE ( 'NONE', #189, -0.0007999960371894697950, 25.84000000000000341 ) ;
#91 = CC_DESIGN_PERSON_AND_ORGANIZATION_ASSIGNMENT ( #92, #46, ( #66 ) ) ;
#92 = PERSON_AND_ORGANIZATION ( #25, #199 ) ;
#93 = DATE_AND_TIME ( #163, #48 ) ;
#94 = ORIENTED_EDGE ( 'NONE', *, *, #2, .F. ) ;
#95 = CARTESIAN_POINT ( 'NONE',  ( 1.836970198721029589E-15, -15.00000000000000000, 1.836970198721029589E-15 ) ) ;
#96 = PERSON_AND_ORGANIZATION_ROLE ( 'design_owner' ) ;
#97 = ORIENTED_EDGE ( 'NONE', *, *, #14, .F. ) ;
#98 =( NAMED_UNIT ( * ) PLANE_ANGLE_UNIT ( ) SI_UNIT ( $, .RADIAN. ) );
#99 = EDGE_CURVE ( 'NONE', #201, #47, #1, .T. ) ;
#100 = PLANE ( 'NONE',  #106 ) ;
#101 = FACE_OUTER_BOUND ( 'NONE', #18, .T. ) ;
#102 = COORDINATED_UNIVERSAL_TIME_OFFSET ( 8, 0, .AHEAD. ) ;
#103 = PRODUCT_RELATED_PRODUCT_CATEGORY ( 'detail', '', ( #27 ) ) ;
#104 = MECHANICAL_CONTEXT ( 'NONE', #197, 'mechanical' ) ;
#105 = APPROVAL_PERSON_ORGANIZATION ( #141, #127, #121 ) ;
#106 = AXIS2_PLACEMENT_3D ( 'NONE', #194, #136, #62 ) ;
#107 = ORIENTED_EDGE ( 'NONE', *, *, #99, .F. ) ;
#108 = AXIS2_PLACEMENT_3D ( 'NONE', #134, #174, #74 ) ;
#109 = CC_DESIGN_APPROVAL ( #192, ( #66 ) ) ;
#110 = EDGE_CURVE ( 'NONE', #149, #155, #7, .T. ) ;
#111 = CC_DESIGN_DATE_AND_TIME_ASSIGNMENT ( #152, #122, ( #138 ) ) ;
#112 = PERSON_AND_ORGANIZATION ( #25, #199 ) ;
#113 = CARTESIAN_POINT ( 'NONE',  ( -7.299999999999998934, -15.00000000000000533, 1.836970198721030378E-15 ) ) ;
#114 = APPROVAL_DATE_TIME ( #93, #192 ) ;
#115 = DATE_TIME_ROLE ( 'creation_date' ) ;
#116 = APPROVAL_PERSON_ORGANIZATION ( #42, #192, #61 ) ;
#117 = APPROVAL_PERSON_ORGANIZATION ( #112, #70, #6 ) ;
#118 = DIRECTION ( 'NONE',  ( -1.224646799147352961E-16, 1.000000000000000000, 0.000000000000000000 ) ) ;
#119 = ORIENTED_EDGE ( 'NONE', *, *, #45, .T. ) ;
#120 = LOCAL_TIME ( 14, 34, 57.00000000000000000, #43 ) ;
#121 = APPROVAL_ROLE ( '' ) ;
#122 = DATE_TIME_ROLE ( 'classification_date' ) ;
#123 = APPROVAL_DATE_TIME ( #133, #70 ) ;
#124 = ADVANCED_FACE ( 'NONE', ( #39 ), #165, .F. ) ;
#125 = APPLICATION_PROTOCOL_DEFINITION ( 'international standard', 'config_control_design', 1994, #180 ) ;
#126 = ORIENTED_EDGE ( 'NONE', *, *, #167, .T. ) ;
#127 = APPROVAL ( #79, 'Î´Ö¸¶¨' ) ;
#128 = AXIS2_PLACEMENT_3D ( 'NONE', #72, #140, #173 ) ;
#129 = LINE ( 'NONE', #95, #17 ) ;
#130 = CC_DESIGN_APPROVAL ( #70, ( #185 ) ) ;
#131 = ORIENTED_EDGE ( 'NONE', *, *, #2, .T. ) ;
#132 = ORIENTED_EDGE ( 'NONE', *, *, #110, .T. ) ;
#133 = DATE_AND_TIME ( #176, #146 ) ;
#134 = CARTESIAN_POINT ( 'NONE',  ( -7.299999999999998934, -8.939921633775676859E-16, 0.000000000000000000 ) ) ;
#135 =( GEOMETRIC_REPRESENTATION_CONTEXT ( 3 ) GLOBAL_UNCERTAINTY_ASSIGNED_CONTEXT ( ( #144 ) ) GLOBAL_UNIT_ASSIGNED_CONTEXT ( ( #76, #98, #4 ) ) REPRESENTATION_CONTEXT ( 'NONE', 'WORKASPACE' ) );
#136 = DIRECTION ( 'NONE',  ( 1.000000000000000000, 1.224646799147353207E-16, -0.000000000000000000 ) ) ;
#137 = FACE_OUTER_BOUND ( 'NONE', #187, .T. ) ;
#138 = SECURITY_CLASSIFICATION ( '', '', #9 ) ;
#139 = PERSON_AND_ORGANIZATION ( #25, #199 ) ;
#140 = DIRECTION ( 'NONE',  ( 1.000000000000000000, 1.224646799147353207E-16, -0.000000000000000000 ) ) ;
#141 = PERSON_AND_ORGANIZATION ( #25, #199 ) ;
#142 = ADVANCED_FACE ( 'NONE', ( #101 ), #100, .T. ) ;
#143 = APPROVAL_STATUS ( 'not_yet_approved' ) ;
#144 = UNCERTAINTY_MEASURE_WITH_UNIT (LENGTH_MEASURE( 1.000000000000000082E-05 ), #76, 'distance_accuracy_value', 'NONE');
#145 = CC_DESIGN_PERSON_AND_ORGANIZATION_ASSIGNMENT ( #32, #73, ( #66 ) ) ;
#146 = LOCAL_TIME ( 14, 34, 57.00000000000000000, #89 ) ;
#147 = CARTESIAN_POINT ( 'NONE',  ( 3.673940397442059375E-16, 4.499279347985572276E-32, 0.000000000000000000 ) ) ;
#148 = MANIFOLD_SOLID_BREP ( 'Ðý×ª1', #162 ) ;
#149 = VERTEX_POINT ( 'NONE', #113 ) ;
#150 = AXIS2_PLACEMENT_3D ( 'NONE', #63, #186, #195 ) ;
#151 = CARTESIAN_POINT ( 'NONE',  ( 0.000000000000000000, 0.000000000000000000, 0.000000000000000000 ) ) ;
#152 = DATE_AND_TIME ( #29, #168 ) ;
#153 = CC_DESIGN_PERSON_AND_ORGANIZATION_ASSIGNMENT ( #190, #159, ( #138 ) ) ;
#154 = CIRCLE ( 'NONE', #181, 25.84000000000000341 ) ;
#155 = VERTEX_POINT ( 'NONE', #177 ) ;
#156 = CARTESIAN_POINT ( 'NONE',  ( -2.500000000000000000, -3.061616997868383141E-16, 0.000000000000000000 ) ) ;
#157 = LINE ( 'NONE', #31, #171 ) ;
#158 = DIRECTION ( 'NONE',  ( 1.000000000000000000, 1.224646799147353207E-16, -0.000000000000000000 ) ) ;
#159 = PERSON_AND_ORGANIZATION_ROLE ( 'classification_officer' ) ;
#160 = AXIS2_PLACEMENT_3D ( 'NONE', #147, #69, #118 ) ;
#161 = CALENDAR_DATE ( 2024, 10, 5 ) ;
#162 = CLOSED_SHELL ( 'NONE', ( #23, #82, #124, #49, #142 ) ) ;
#163 = CALENDAR_DATE ( 2024, 10, 5 ) ;
#164 = ORIENTED_EDGE ( 'NONE', *, *, #67, .T. ) ;
#165 = TOROIDAL_SURFACE ( 'NONE', #128, -0.0007999960371894697950, 25.84000000000000341 ) ;
#166 = DIRECTION ( 'NONE',  ( -1.000000000000000000, 0.000000000000000000, 0.000000000000000000 ) ) ;
#167 = EDGE_CURVE ( 'NONE', #155, #201, #157, .T. ) ;
#168 = LOCAL_TIME ( 14, 34, 57.00000000000000000, #54 ) ;
#169 = EDGE_LOOP ( 'NONE', ( #81, #132, #126, #13 ) ) ;
#170 = FACE_OUTER_BOUND ( 'NONE', #169, .T. ) ;
#171 = VECTOR ( 'NONE', #10, 1000.000000000000000 ) ;
#172 = EDGE_LOOP ( 'NONE', ( #164, #36, #107, #15 ) ) ;
#173 = DIRECTION ( 'NONE',  ( -1.224646799147353207E-16, 1.000000000000000000, 0.000000000000000000 ) ) ;
#174 = DIRECTION ( 'NONE',  ( 1.000000000000000000, 1.224646799147353207E-16, -0.000000000000000000 ) ) ;
#175 = PRODUCT_DEFINITION_SHAPE ( 'NONE', 'NONE',  #185 ) ;
#176 = CALENDAR_DATE ( 2024, 10, 5 ) ;
#177 = CARTESIAN_POINT ( 'NONE',  ( -7.300000000000000711, 15.00000000000000178, 0.000000000000000000 ) ) ;
#178 = APPLICATION_PROTOCOL_DEFINITION ( 'international standard', 'config_control_design', 1994, #197 ) ;
#179 = DATE_AND_TIME ( #193, #71 ) ;
#180 = APPLICATION_CONTEXT ( 'configuration controlled 3d designs of mechanical parts and assemblies' ) ;
#181 = AXIS2_PLACEMENT_3D ( 'NONE', #22, #35, #166 ) ;
#182 = DIRECTION ( 'NONE',  ( 0.000000000000000000, -1.000000000000000000, 1.224646799147353207E-16 ) ) ;
#183 = CARTESIAN_POINT ( 'NONE',  ( 2.204364238465235428E-15, -15.00000000000000000, 1.836970198721029589E-15 ) ) ;
#184 = DIRECTION ( 'NONE',  ( 1.000000000000000000, 1.224646799147353207E-16, -0.000000000000000000 ) ) ;
#185 = PRODUCT_DEFINITION ( 'Î´Öª', '', #66, #80 ) ;
#186 = DIRECTION ( 'NONE',  ( 0.000000000000000000, 0.000000000000000000, 1.000000000000000000 ) ) ;
#187 = EDGE_LOOP ( 'NONE', ( #200, #55, #94 ) ) ;
#188 = AXIS2_PLACEMENT_3D ( 'NONE', #84, #68, #182 ) ;
#189 = AXIS2_PLACEMENT_3D ( 'NONE', #5, #24, #86 ) ;
#190 = PERSON_AND_ORGANIZATION ( #25, #199 ) ;
#191 = DIRECTION ( 'NONE',  ( 1.000000000000000000, 1.224646799147353207E-16, -0.000000000000000000 ) ) ;
#192 = APPROVAL ( #143, 'Î´Ö¸¶¨' ) ;
#193 = CALENDAR_DATE ( 2024, 10, 5 ) ;
#194 = CARTESIAN_POINT ( 'NONE',  ( -1.653273178848926669E-15, 15.00000000000000000, 0.000000000000000000 ) ) ;
#195 = DIRECTION ( 'NONE',  ( 1.000000000000000000, 0.000000000000000000, 0.000000000000000000 ) ) ;
#196 = AXIS2_PLACEMENT_3D ( 'NONE', #41, #60, #3 ) ;
#197 = APPLICATION_CONTEXT ( 'configuration controlled 3d designs of mechanical parts and assemblies' ) ;
#198 = ORIENTED_EDGE ( 'NONE', *, *, #67, .F. ) ;
#199 = ORGANIZATION ( 'Î´Ö¸¶¨', 'Î´Ö¸¶¨', '' ) ;
#200 = ORIENTED_EDGE ( 'NONE', *, *, #110, .F. ) ;
#201 = VERTEX_POINT ( 'NONE', #59 ) ;
ENDSEC;
END-ISO-10303-21;
