ISO-10303-21;
HEADER;
FILE_DESCRIPTION (( 'STEP AP203' ),
    '1' );
FILE_NAME ('120358.STEP',
    '2024-05-10T06:56:11',
    ( '' ),
    ( '' ),
    'SwSTEP 2.0',
    'SolidWorks 2020',
    '' );
FILE_SCHEMA (( 'CONFIG_CONTROL_DESIGN' ));
ENDSEC;

DATA;
#1 = FACE_OUTER_BOUND ( 'NONE', #183, .T. ) ;
#2 = DIRECTION ( 'NONE',  ( 1.000000000000000000, 1.224646799147352961E-16, -0.000000000000000000 ) ) ;
#3 = CALENDAR_DATE ( 2024, 10, 5 ) ;
#4 = CARTESIAN_POINT ( 'NONE',  ( -85.11999833166458984, -1.042528151480592857E-14, 0.000000000000000000 ) ) ;
#5 = DIRECTION ( 'NONE',  ( 1.000000000000000000, 1.224646799147352961E-16, -0.000000000000000000 ) ) ;
#6 = EDGE_CURVE ( 'NONE', #172, #20, #134, .T. ) ;
#7 = AXIS2_PLACEMENT_3D ( 'NONE', #4, #2, #42 ) ;
#8 = ORIENTED_EDGE ( 'NONE', *, *, #101, .T. ) ;
#9 = ORIENTED_EDGE ( 'NONE', *, *, #110, .F. ) ;
#10 = CARTESIAN_POINT ( 'NONE',  ( 0.000000000000000000, 0.000000000000000000, 0.000000000000000000 ) ) ;
#11 = DIRECTION ( 'NONE',  ( 1.000000000000000000, 1.224646799147352961E-16, -0.000000000000000000 ) ) ;
#12 = APPROVAL_PERSON_ORGANIZATION ( #100, #81, #167 ) ;
#13 = PERSON_AND_ORGANIZATION ( #62, #53 ) ;
#14 = TOROIDAL_SURFACE ( 'NONE', #7, 0.01660348570797604353, 82.61999999999999034 ) ;
#15 = CARTESIAN_POINT ( 'NONE',  ( -2.500000000000000000, -3.061616997868382648E-16, 0.000000000000000000 ) ) ;
#16 = FACE_OUTER_BOUND ( 'NONE', #90, .T. ) ;
#17 = CALENDAR_DATE ( 2024, 10, 5 ) ;
#18 = AXIS2_PLACEMENT_3D ( 'NONE', #10, #37, #159 ) ;
#19 = APPROVAL_STATUS ( 'not_yet_approved' ) ;
#20 = VERTEX_POINT ( 'NONE', #23 ) ;
#21 = PERSON_AND_ORGANIZATION ( #62, #53 ) ;
#22 = EDGE_CURVE ( 'NONE', #20, #172, #59, .T. ) ;
#23 = CARTESIAN_POINT ( 'NONE',  ( -3.870000000000000107, 15.00000000000001421, 0.000000000000000000 ) ) ;
#24 = VERTEX_POINT ( 'NONE', #93 ) ;
#25 = CARTESIAN_POINT ( 'NONE',  ( 1.836970198721029194E-15, -15.00000000000000000, 1.836970198721029589E-15 ) ) ;
#26 = CARTESIAN_POINT ( 'NONE',  ( -3.869999999999999662, -4.739383112700256032E-16, 0.000000000000000000 ) ) ;
#27 = CARTESIAN_POINT ( 'NONE',  ( -85.11999833166458984, -1.042528151480592857E-14, 0.000000000000000000 ) ) ;
#28 = PRODUCT_DEFINITION ( 'Î´Öª', '', #41, #114 ) ;
#29 = PERSON_AND_ORGANIZATION ( #62, #53 ) ;
#30 = DIRECTION ( 'NONE',  ( -1.224646799147352714E-16, 1.000000000000000000, 0.000000000000000000 ) ) ;
#31 = APPROVAL_DATE_TIME ( #131, #122 ) ;
#32 = FACE_OUTER_BOUND ( 'NONE', #97, .T. ) ;
#33 = ORIENTED_EDGE ( 'NONE', *, *, #22, .F. ) ;
#34 = DATE_AND_TIME ( #17, #152 ) ;
#35 = SECURITY_CLASSIFICATION ( '', '', #168 ) ;
#36 = DIRECTION ( 'NONE',  ( -1.156482317317871478E-16, 1.000000000000000000, 0.000000000000000000 ) ) ;
#37 = DIRECTION ( 'NONE',  ( 1.000000000000000000, 1.224646799147352961E-16, -0.000000000000000000 ) ) ;
#38 = DIRECTION ( 'NONE',  ( -0.000000000000000000, 0.000000000000000000, -1.000000000000000000 ) ) ;
#39 = CARTESIAN_POINT ( 'NONE',  ( -3.869999999999999662, -4.739383112700256032E-16, 0.000000000000000000 ) ) ;
#40 = PRODUCT_DEFINITION_SHAPE ( 'NONE', 'NONE',  #28 ) ;
#41 = PRODUCT_DEFINITION_FORMATION_WITH_SPECIFIED_SOURCE ( 'ÈÎºÎ', '', #156, .NOT_KNOWN. ) ;
#42 = DIRECTION ( 'NONE',  ( -1.224646799147352961E-16, 1.000000000000000000, 0.000000000000000000 ) ) ;
#43 = VECTOR ( 'NONE', #145, 1000.000000000000000 ) ;
#44 = PERSON_AND_ORGANIZATION_ROLE ( 'creator' ) ;
#45 = ADVANCED_BREP_SHAPE_REPRESENTATION ( '120358', ( #132, #153 ), #124 ) ;
#46 = PERSON_AND_ORGANIZATION ( #62, #53 ) ;
#47 = LOCAL_TIME ( 14, 56, 11.00000000000000000, #118 ) ;
#48 = ORIENTED_EDGE ( 'NONE', *, *, #110, .T. ) ;
#49 = PERSON_AND_ORGANIZATION ( #62, #53 ) ;
#50 = ORIENTED_EDGE ( 'NONE', *, *, #160, .F. ) ;
#51 = ORIENTED_EDGE ( 'NONE', *, *, #185, .T. ) ;
#52 = CC_DESIGN_PERSON_AND_ORGANIZATION_ASSIGNMENT ( #140, #155, ( #35 ) ) ;
#53 = ORGANIZATION ( 'Î´Ö¸¶¨', 'Î´Ö¸¶¨', '' ) ;
#54 = CYLINDRICAL_SURFACE ( 'NONE', #18, 15.00000000000000000 ) ;
#55 = CARTESIAN_POINT ( 'NONE',  ( 2.561976457024714181E-15, -15.00000000000000000, 1.836970198721029589E-15 ) ) ;
#56 = DIRECTION ( 'NONE',  ( 1.000000000000000000, 1.224646799147352961E-16, -0.000000000000000000 ) ) ;
#57 = CARTESIAN_POINT ( 'NONE',  ( 0.000000000000000000, 0.000000000000000000, 0.000000000000000000 ) ) ;
#58 = DATE_AND_TIME ( #3, #108 ) ;
#59 = CIRCLE ( 'NONE', #76, 15.00000000000000000 ) ;
#60 = DIRECTION ( 'NONE',  ( 1.000000000000000000, 1.224646799147352961E-16, -0.000000000000000000 ) ) ;
#61 = APPROVAL_ROLE ( '' ) ;
#62 = PERSON ( 'Î´Ö¸¶¨', 'Î´Ö¸¶¨', 'Î´Ö¸¶¨', ('Î´Ö¸¶¨'), ('Î´Ö¸¶¨'), ('Î´Ö¸¶¨') ) ;
#63 = CC_DESIGN_SECURITY_CLASSIFICATION ( #35, ( #41 ) ) ;
#64 = CC_DESIGN_PERSON_AND_ORGANIZATION_ASSIGNMENT ( #46, #192, ( #156 ) ) ;
#65 = CIRCLE ( 'NONE', #80, 82.61999999999999034 ) ;
#66 = PERSON_AND_ORGANIZATION_ROLE ( 'creator' ) ;
#67 = SHAPE_DEFINITION_REPRESENTATION ( #40, #45 ) ;
#68 = EDGE_LOOP ( 'NONE', ( #112, #48 ) ) ;
#69 = PERSON_AND_ORGANIZATION_ROLE ( 'design_supplier' ) ;
#70 = ORIENTED_EDGE ( 'NONE', *, *, #141, .T. ) ;
#71 = LINE ( 'NONE', #25, #163 ) ;
#72 = APPLICATION_CONTEXT ( 'configuration controlled 3d designs of mechanical parts and assemblies' ) ;
#73 = DIRECTION ( 'NONE',  ( -1.000000000000000000, 0.000000000000000000, 0.000000000000000000 ) ) ;
#74 = AXIS2_PLACEMENT_3D ( 'NONE', #75, #92, #186 ) ;
#75 = CARTESIAN_POINT ( 'NONE',  ( -1.474467069569186701E-15, 15.00000000000000000, 0.000000000000000000 ) ) ;
#76 = AXIS2_PLACEMENT_3D ( 'NONE', #26, #184, #36 ) ;
#77 = CARTESIAN_POINT ( 'NONE',  ( -1.836970198721029194E-15, 15.00000000000000000, 0.000000000000000000 ) ) ;
#78 = DIRECTION ( 'NONE',  ( -1.224646799147352961E-16, 1.000000000000000000, 0.000000000000000000 ) ) ;
#79 = UNCERTAINTY_MEASURE_WITH_UNIT (LENGTH_MEASURE( 1.000000000000000082E-05 ), #133, 'distance_accuracy_value', 'NONE');
#80 = AXIS2_PLACEMENT_3D ( 'NONE', #130, #82, #151 ) ;
#81 = APPROVAL ( #83, 'Î´Ö¸¶¨' ) ;
#82 = DIRECTION ( 'NONE',  ( -1.499759782661857334E-32, 1.224646799147353207E-16, 1.000000000000000000 ) ) ;
#83 = APPROVAL_STATUS ( 'not_yet_approved' ) ;
#84 = DIRECTION ( 'NONE',  ( -1.224646799147352714E-16, 1.000000000000000000, 0.000000000000000000 ) ) ;
#85 = ADVANCED_FACE ( 'NONE', ( #1 ), #191, .F. ) ;
#86 = APPLICATION_CONTEXT ( 'configuration controlled 3d designs of mechanical parts and assemblies' ) ;
#87 = LOCAL_TIME ( 14, 56, 11.00000000000000000, #91 ) ;
#88 = CIRCLE ( 'NONE', #144, 15.00000000000000000 ) ;
#89 = APPROVAL_DATE_TIME ( #137, #126 ) ;
#90 = EDGE_LOOP ( 'NONE', ( #139, #125, #107, #9 ) ) ;
#91 = COORDINATED_UNIVERSAL_TIME_OFFSET ( 8, 0, .AHEAD. ) ;
#92 = DIRECTION ( 'NONE',  ( 1.000000000000000000, 1.224646799147352961E-16, -0.000000000000000000 ) ) ;
#93 = CARTESIAN_POINT ( 'NONE',  ( -1.111963940417344011E-15, 15.00000000000000000, 0.000000000000000000 ) ) ;
#94 = DIRECTION ( 'NONE',  ( -1.224646799147352714E-16, 1.000000000000000000, 0.000000000000000000 ) ) ;
#95 = FACE_OUTER_BOUND ( 'NONE', #106, .T. ) ;
#96 = CLOSED_SHELL ( 'NONE', ( #147, #85, #194, #174, #119 ) ) ;
#97 = EDGE_LOOP ( 'NONE', ( #181, #33, #70 ) ) ;
#98 = APPROVAL_STATUS ( 'not_yet_approved' ) ;
#99 = CARTESIAN_POINT ( 'NONE',  ( 7.250062583036850853E-16, 8.878765935934069735E-32, 0.000000000000000000 ) ) ;
#100 = PERSON_AND_ORGANIZATION ( #62, #53 ) ;
#101 = EDGE_CURVE ( 'NONE', #172, #123, #71, .T. ) ;
#102 = CC_DESIGN_PERSON_AND_ORGANIZATION_ASSIGNMENT ( #49, #66, ( #41 ) ) ;
#103 = DATE_TIME_ROLE ( 'classification_date' ) ;
#104 = ORIENTED_EDGE ( 'NONE', *, *, #6, .F. ) ;
#105 = AXIS2_PLACEMENT_3D ( 'NONE', #27, #198, #78 ) ;
#106 = EDGE_LOOP ( 'NONE', ( #173, #8, #121, #50 ) ) ;
#107 = ORIENTED_EDGE ( 'NONE', *, *, #160, .T. ) ;
#108 = LOCAL_TIME ( 14, 56, 11.00000000000000000, #115 ) ;
#109 = AXIS2_PLACEMENT_3D ( 'NONE', #99, #60, #84 ) ;
#110 = EDGE_CURVE ( 'NONE', #123, #24, #88, .T. ) ;
#111 = LINE ( 'NONE', #77, #43 ) ;
#112 = ORIENTED_EDGE ( 'NONE', *, *, #180, .T. ) ;
#113 = DIRECTION ( 'NONE',  ( -1.156482317317871478E-16, 1.000000000000000000, 0.000000000000000000 ) ) ;
#114 = DESIGN_CONTEXT ( 'detailed design', #86, 'design' ) ;
#115 = COORDINATED_UNIVERSAL_TIME_OFFSET ( 8, 0, .AHEAD. ) ;
#116 = AXIS2_PLACEMENT_3D ( 'NONE', #201, #38, #73 ) ;
#117 = APPLICATION_PROTOCOL_DEFINITION ( 'international standard', 'config_control_design', 1994, #86 ) ;
#118 = COORDINATED_UNIVERSAL_TIME_OFFSET ( 8, 0, .AHEAD. ) ;
#119 = ADVANCED_FACE ( 'NONE', ( #127 ), #200, .T. ) ;
#120 = CC_DESIGN_PERSON_AND_ORGANIZATION_ASSIGNMENT ( #13, #44, ( #28 ) ) ;
#121 = ORIENTED_EDGE ( 'NONE', *, *, #180, .F. ) ;
#122 = APPROVAL ( #98, 'Î´Ö¸¶¨' ) ;
#123 = VERTEX_POINT ( 'NONE', #55 ) ;
#124 =( GEOMETRIC_REPRESENTATION_CONTEXT ( 3 ) GLOBAL_UNCERTAINTY_ASSIGNED_CONTEXT ( ( #79 ) ) GLOBAL_UNIT_ASSIGNED_CONTEXT ( ( #133, #190, #164 ) ) REPRESENTATION_CONTEXT ( 'NONE', 'WORKASPACE' ) );
#125 = ORIENTED_EDGE ( 'NONE', *, *, #6, .T. ) ;
#126 = APPROVAL ( #19, 'Î´Ö¸¶¨' ) ;
#127 = FACE_OUTER_BOUND ( 'NONE', #68, .T. ) ;
#128 = ORIENTED_EDGE ( 'NONE', *, *, #141, .F. ) ;
#129 = DIRECTION ( 'NONE',  ( 1.000000000000000000, 1.224646799147352961E-16, -0.000000000000000000 ) ) ;
#130 = CARTESIAN_POINT ( 'NONE',  ( -85.11999833166458984, -0.01660348570798646922, 2.033340562696168804E-18 ) ) ;
#131 = DATE_AND_TIME ( #178, #195 ) ;
#132 = MANIFOLD_SOLID_BREP ( 'Ðý×ª1', #96 ) ;
#133 =( LENGTH_UNIT ( ) NAMED_UNIT ( * ) SI_UNIT ( .MILLI., .METRE. ) );
#134 = CIRCLE ( 'NONE', #158, 15.00000000000000000 ) ;
#135 = DIRECTION ( 'NONE',  ( 0.000000000000000000, 0.000000000000000000, 1.000000000000000000 ) ) ;
#136 = CC_DESIGN_APPROVAL ( #81, ( #41 ) ) ;
#137 = DATE_AND_TIME ( #154, #87 ) ;
#138 = PERSON_AND_ORGANIZATION ( #62, #53 ) ;
#139 = ORIENTED_EDGE ( 'NONE', *, *, #101, .F. ) ;
#140 = PERSON_AND_ORGANIZATION ( #62, #53 ) ;
#141 = EDGE_CURVE ( 'NONE', #20, #169, #199, .T. ) ;
#142 = CC_DESIGN_DATE_AND_TIME_ASSIGNMENT ( #58, #188, ( #28 ) ) ;
#143 = APPROVAL_PERSON_ORGANIZATION ( #138, #126, #61 ) ;
#144 = AXIS2_PLACEMENT_3D ( 'NONE', #157, #129, #94 ) ;
#145 = DIRECTION ( 'NONE',  ( 1.000000000000000000, 1.224646799147352961E-16, -0.000000000000000000 ) ) ;
#146 = CALENDAR_DATE ( 2024, 10, 5 ) ;
#147 = ADVANCED_FACE ( 'NONE', ( #95 ), #54, .T. ) ;
#148 = DIRECTION ( 'NONE',  ( 1.000000000000000000, 0.000000000000000000, 0.000000000000000000 ) ) ;
#149 = PRODUCT_RELATED_PRODUCT_CATEGORY ( 'detail', '', ( #156 ) ) ;
#150 = DATE_AND_TIME ( #146, #47 ) ;
#151 = DIRECTION ( 'NONE',  ( 0.000000000000000000, -1.000000000000000000, 1.224646799147353207E-16 ) ) ;
#152 = LOCAL_TIME ( 14, 56, 11.00000000000000000, #197 ) ;
#153 = AXIS2_PLACEMENT_3D ( 'NONE', #187, #135, #148 ) ;
#154 = CALENDAR_DATE ( 2024, 10, 5 ) ;
#155 = PERSON_AND_ORGANIZATION_ROLE ( 'classification_officer' ) ;
#156 = PRODUCT ( '120358', '120358', '', ( #193 ) ) ;
#157 = CARTESIAN_POINT ( 'NONE',  ( 7.250062583036850853E-16, 8.878765935934069735E-32, 0.000000000000000000 ) ) ;
#158 = AXIS2_PLACEMENT_3D ( 'NONE', #39, #11, #113 ) ;
#159 = DIRECTION ( 'NONE',  ( -1.224646799147352714E-16, 1.000000000000000000, 0.000000000000000000 ) ) ;
#160 = EDGE_CURVE ( 'NONE', #20, #24, #111, .T. ) ;
#161 = COORDINATED_UNIVERSAL_TIME_OFFSET ( 8, 0, .AHEAD. ) ;
#162 = CC_DESIGN_APPROVAL ( #126, ( #35 ) ) ;
#163 = VECTOR ( 'NONE', #56, 1000.000000000000000 ) ;
#164 =( NAMED_UNIT ( * ) SI_UNIT ( $, .STERADIAN. ) SOLID_ANGLE_UNIT ( ) );
#165 = CC_DESIGN_PERSON_AND_ORGANIZATION_ASSIGNMENT ( #21, #69, ( #41 ) ) ;
#166 = APPLICATION_PROTOCOL_DEFINITION ( 'international standard', 'config_control_design', 1994, #72 ) ;
#167 = APPROVAL_ROLE ( '' ) ;
#168 = SECURITY_CLASSIFICATION_LEVEL ( 'unclassified' ) ;
#169 = VERTEX_POINT ( 'NONE', #15 ) ;
#170 = APPROVAL_DATE_TIME ( #150, #81 ) ;
#171 = CC_DESIGN_APPROVAL ( #122, ( #28 ) ) ;
#172 = VERTEX_POINT ( 'NONE', #175 ) ;
#173 = ORIENTED_EDGE ( 'NONE', *, *, #22, .T. ) ;
#174 = ADVANCED_FACE ( 'NONE', ( #16 ), #176, .T. ) ;
#175 = CARTESIAN_POINT ( 'NONE',  ( -3.869999999999998330, -15.00000000000001421, 1.836970198721031167E-15 ) ) ;
#176 = CYLINDRICAL_SURFACE ( 'NONE', #196, 15.00000000000000000 ) ;
#177 = APPROVAL_PERSON_ORGANIZATION ( #29, #122, #179 ) ;
#178 = CALENDAR_DATE ( 2024, 10, 5 ) ;
#179 = APPROVAL_ROLE ( '' ) ;
#180 = EDGE_CURVE ( 'NONE', #24, #123, #189, .T. ) ;
#181 = ORIENTED_EDGE ( 'NONE', *, *, #185, .F. ) ;
#182 = CC_DESIGN_DATE_AND_TIME_ASSIGNMENT ( #34, #103, ( #35 ) ) ;
#183 = EDGE_LOOP ( 'NONE', ( #104, #51, #128 ) ) ;
#184 = DIRECTION ( 'NONE',  ( 1.000000000000000000, 1.224646799147352961E-16, -0.000000000000000000 ) ) ;
#185 = EDGE_CURVE ( 'NONE', #172, #169, #65, .T. ) ;
#186 = DIRECTION ( 'NONE',  ( -1.224646799147352961E-16, 1.000000000000000000, 0.000000000000000000 ) ) ;
#187 = CARTESIAN_POINT ( 'NONE',  ( 0.000000000000000000, 0.000000000000000000, 0.000000000000000000 ) ) ;
#188 = DATE_TIME_ROLE ( 'creation_date' ) ;
#189 = CIRCLE ( 'NONE', #109, 15.00000000000000000 ) ;
#190 =( NAMED_UNIT ( * ) PLANE_ANGLE_UNIT ( ) SI_UNIT ( $, .RADIAN. ) );
#191 = TOROIDAL_SURFACE ( 'NONE', #105, 0.01660348570797604353, 82.61999999999999034 ) ;
#192 = PERSON_AND_ORGANIZATION_ROLE ( 'design_owner' ) ;
#193 = MECHANICAL_CONTEXT ( 'NONE', #72, 'mechanical' ) ;
#194 = ADVANCED_FACE ( 'NONE', ( #32 ), #14, .F. ) ;
#195 = LOCAL_TIME ( 14, 56, 11.00000000000000000, #161 ) ;
#196 = AXIS2_PLACEMENT_3D ( 'NONE', #57, #5, #30 ) ;
#197 = COORDINATED_UNIVERSAL_TIME_OFFSET ( 8, 0, .AHEAD. ) ;
#198 = DIRECTION ( 'NONE',  ( 1.000000000000000000, 1.224646799147352961E-16, -0.000000000000000000 ) ) ;
#199 = CIRCLE ( 'NONE', #116, 82.62000000000000455 ) ;
#200 = PLANE ( 'NONE',  #74 ) ;
#201 = CARTESIAN_POINT ( 'NONE',  ( -85.11999833166458984, 0.01660348570796561785, 0.000000000000000000 ) ) ;
ENDSEC;
END-ISO-10303-21;
