ISO-10303-21;
HEADER;
FILE_DESCRIPTION (( 'STEP AP203' ),
    '1' );
FILE_NAME ('120359.STEP',
    '2024-05-10T07:00:29',
    ( '' ),
    ( '' ),
    'SwSTEP 2.0',
    'SolidWorks 2020',
    '' );
FILE_SCHEMA (( 'CONFIG_CONTROL_DESIGN' ));
ENDSEC;

DATA;
#1 = LOCAL_TIME ( 15, 0, 29.00000000000000000, #29 ) ;
#2 = ADVANCED_FACE ( 'NONE', ( #112 ), #155, .F. ) ;
#3 = ORIENTED_EDGE ( 'NONE', *, *, #189, .T. ) ;
#4 = CIRCLE ( 'NONE', #165, 15.00000000000000000 ) ;
#5 = CARTESIAN_POINT ( 'NONE',  ( 0.000000000000000000, 0.000000000000000000, 0.000000000000000000 ) ) ;
#6 = DIRECTION ( 'NONE',  ( 1.000000000000000000, 1.224646799147353207E-16, -0.000000000000000000 ) ) ;
#7 = CALENDAR_DATE ( 2024, 10, 5 ) ;
#8 = DIRECTION ( 'NONE',  ( -1.499759782661857608E-32, 1.224646799147353207E-16, 1.000000000000000000 ) ) ;
#9 = APPROVAL_STATUS ( 'not_yet_approved' ) ;
#10 = ORGANIZATION ( 'Î´Ö¸¶¨', 'Î´Ö¸¶¨', '' ) ;
#11 = CARTESIAN_POINT ( 'NONE',  ( 2.561508415370572118E-15, -15.00000000000000000, 1.836970198721029589E-15 ) ) ;
#12 = APPROVAL_STATUS ( 'not_yet_approved' ) ;
#13 = CARTESIAN_POINT ( 'NONE',  ( -2.500000000000000000, -3.061616997868383141E-16, 0.000000000000000000 ) ) ;
#14 = ADVANCED_FACE ( 'NONE', ( #176 ), #61, .T. ) ;
#15 = PRODUCT_DEFINITION_SHAPE ( 'NONE', 'NONE',  #107 ) ;
#16 = ORIENTED_EDGE ( 'NONE', *, *, #33, .T. ) ;
#17 = ADVANCED_FACE ( 'NONE', ( #101 ), #40, .T. ) ;
#18 = APPROVAL_PERSON_ORGANIZATION ( #27, #63, #50 ) ;
#19 = ORIENTED_EDGE ( 'NONE', *, *, #159, .T. ) ;
#20 = ORIENTED_EDGE ( 'NONE', *, *, #159, .F. ) ;
#21 = ORIENTED_EDGE ( 'NONE', *, *, #56, .F. ) ;
#22 = PERSON_AND_ORGANIZATION_ROLE ( 'classification_officer' ) ;
#23 = DIRECTION ( 'NONE',  ( -1.224646799147353207E-16, 1.000000000000000000, 0.000000000000000000 ) ) ;
#24 = DATE_AND_TIME ( #115, #31 ) ;
#25 = ADVANCED_BREP_SHAPE_REPRESENTATION ( '120359', ( #75, #76 ), #47 ) ;
#26 = LINE ( 'NONE', #196, #187 ) ;
#27 = PERSON_AND_ORGANIZATION ( #117, #10 ) ;
#28 = PLANE ( 'NONE',  #142 ) ;
#29 = COORDINATED_UNIVERSAL_TIME_OFFSET ( 8, 0, .AHEAD. ) ;
#30 = ADVANCED_FACE ( 'NONE', ( #160 ), #85, .F. ) ;
#31 = LOCAL_TIME ( 15, 0, 29.00000000000000000, #98 ) ;
#32 = APPLICATION_CONTEXT ( 'configuration controlled 3d designs of mechanical parts and assemblies' ) ;
#33 = EDGE_CURVE ( 'NONE', #46, #59, #129, .T. ) ;
#34 = LOCAL_TIME ( 15, 0, 29.00000000000000000, #39 ) ;
#35 = PRODUCT ( '120359', '120359', '', ( #49 ) ) ;
#36 = CLOSED_SHELL ( 'NONE', ( #17, #30, #2, #14, #141 ) ) ;
#37 = SHAPE_DEFINITION_REPRESENTATION ( #15, #25 ) ;
#38 = DIRECTION ( 'NONE',  ( -1.224646799147352961E-16, 1.000000000000000000, 0.000000000000000000 ) ) ;
#39 = COORDINATED_UNIVERSAL_TIME_OFFSET ( 8, 0, .AHEAD. ) ;
#40 = CYLINDRICAL_SURFACE ( 'NONE', #175, 15.00000000000000000 ) ;
#41 = PERSON_AND_ORGANIZATION ( #117, #10 ) ;
#42 = DIRECTION ( 'NONE',  ( 1.000000000000000000, 1.224646799147353207E-16, -0.000000000000000000 ) ) ;
#43 = CARTESIAN_POINT ( 'NONE',  ( -3.600000000000001421, -14.99999999999998579, 1.836970198721028011E-15 ) ) ;
#44 = APPROVAL_DATE_TIME ( #24, #63 ) ;
#45 = CC_DESIGN_PERSON_AND_ORGANIZATION_ASSIGNMENT ( #41, #22, ( #124 ) ) ;
#46 = VERTEX_POINT ( 'NONE', #105 ) ;
#47 =( GEOMETRIC_REPRESENTATION_CONTEXT ( 3 ) GLOBAL_UNCERTAINTY_ASSIGNED_CONTEXT ( ( #192 ) ) GLOBAL_UNIT_ASSIGNED_CONTEXT ( ( #182, #150, #195 ) ) REPRESENTATION_CONTEXT ( 'NONE', 'WORKASPACE' ) );
#48 = VERTEX_POINT ( 'NONE', #152 ) ;
#49 = MECHANICAL_CONTEXT ( 'NONE', #32, 'mechanical' ) ;
#50 = APPROVAL_ROLE ( '' ) ;
#51 = LINE ( 'NONE', #135, #200 ) ;
#52 = DIRECTION ( 'NONE',  ( 0.000000000000000000, 0.000000000000000000, 1.000000000000000000 ) ) ;
#53 = DIRECTION ( 'NONE',  ( -1.224646799147352961E-16, 1.000000000000000000, 0.000000000000000000 ) ) ;
#54 = PERSON_AND_ORGANIZATION ( #117, #10 ) ;
#55 = CARTESIAN_POINT ( 'NONE',  ( -3.599999999999999645, -4.408728476930471151E-16, 0.000000000000000000 ) ) ;
#56 = EDGE_CURVE ( 'NONE', #111, #46, #69, .T. ) ;
#57 = CC_DESIGN_APPROVAL ( #96, ( #171 ) ) ;
#58 = EDGE_CURVE ( 'NONE', #48, #74, #151, .T. ) ;
#59 = VERTEX_POINT ( 'NONE', #13 ) ;
#60 = AXIS2_PLACEMENT_3D ( 'NONE', #114, #81, #201 ) ;
#61 = CYLINDRICAL_SURFACE ( 'NONE', #172, 15.00000000000000000 ) ;
#62 = ORIENTED_EDGE ( 'NONE', *, *, #80, .T. ) ;
#63 = APPROVAL ( #12, 'Î´Ö¸¶¨' ) ;
#64 = PERSON_AND_ORGANIZATION ( #117, #10 ) ;
#65 = EDGE_LOOP ( 'NONE', ( #168, #62, #126, #20 ) ) ;
#66 = DIRECTION ( 'NONE',  ( 1.000000000000000000, 1.224646799147353207E-16, -0.000000000000000000 ) ) ;
#67 = CC_DESIGN_APPROVAL ( #63, ( #107 ) ) ;
#68 = DIRECTION ( 'NONE',  ( -1.000000000000000000, 0.000000000000000000, 0.000000000000000000 ) ) ;
#69 = CIRCLE ( 'NONE', #188, 15.00000000000000000 ) ;
#70 = SECURITY_CLASSIFICATION_LEVEL ( 'unclassified' ) ;
#71 = CARTESIAN_POINT ( 'NONE',  ( -105.7799945562659758, -0.03353293412617155966, 0.000000000000000000 ) ) ;
#72 = CALENDAR_DATE ( 2024, 10, 5 ) ;
#73 = PRODUCT_RELATED_PRODUCT_CATEGORY ( 'detail', '', ( #35 ) ) ;
#74 = VERTEX_POINT ( 'NONE', #11 ) ;
#75 = MANIFOLD_SOLID_BREP ( 'Ðý×ª1', #36 ) ;
#76 = AXIS2_PLACEMENT_3D ( 'NONE', #120, #52, #147 ) ;
#77 = APPROVAL_DATE_TIME ( #158, #97 ) ;
#78 = CIRCLE ( 'NONE', #139, 15.00000000000000000 ) ;
#79 = EDGE_LOOP ( 'NONE', ( #190, #116, #19, #140 ) ) ;
#80 = EDGE_CURVE ( 'NONE', #111, #74, #51, .T. ) ;
#81 = DIRECTION ( 'NONE',  ( 1.000000000000000000, 1.224646799147353207E-16, -0.000000000000000000 ) ) ;
#82 = LOCAL_TIME ( 15, 0, 29.00000000000000000, #145 ) ;
#83 = APPLICATION_PROTOCOL_DEFINITION ( 'international standard', 'config_control_design', 1994, #110 ) ;
#84 = ORIENTED_EDGE ( 'NONE', *, *, #173, .F. ) ;
#85 = TOROIDAL_SURFACE ( 'NONE', #197, -0.03353293412615860475, 103.2800000000000011 ) ;
#86 = PERSON_AND_ORGANIZATION ( #117, #10 ) ;
#87 = ORIENTED_EDGE ( 'NONE', *, *, #33, .F. ) ;
#88 = DATE_AND_TIME ( #7, #82 ) ;
#89 = FACE_OUTER_BOUND ( 'NONE', #198, .T. ) ;
#90 = DESIGN_CONTEXT ( 'detailed design', #110, 'design' ) ;
#91 = LOCAL_TIME ( 15, 0, 29.00000000000000000, #164 ) ;
#92 = DATE_TIME_ROLE ( 'classification_date' ) ;
#93 = DIRECTION ( 'NONE',  ( 1.000000000000000000, 1.224646799147353207E-16, -0.000000000000000000 ) ) ;
#94 = AXIS2_PLACEMENT_3D ( 'NONE', #183, #194, #53 ) ;
#95 = CALENDAR_DATE ( 2024, 10, 5 ) ;
#96 = APPROVAL ( #9, 'Î´Ö¸¶¨' ) ;
#97 = APPROVAL ( #167, 'Î´Ö¸¶¨' ) ;
#98 = COORDINATED_UNIVERSAL_TIME_OFFSET ( 8, 0, .AHEAD. ) ;
#99 = ORIENTED_EDGE ( 'NONE', *, *, #58, .T. ) ;
#100 = DATE_TIME_ROLE ( 'creation_date' ) ;
#101 = FACE_OUTER_BOUND ( 'NONE', #65, .T. ) ;
#102 = APPLICATION_PROTOCOL_DEFINITION ( 'international standard', 'config_control_design', 1994, #32 ) ;
#103 = CARTESIAN_POINT ( 'NONE',  ( -1.474701090396258324E-15, 15.00000000000000000, 0.000000000000000000 ) ) ;
#104 = PERSON_AND_ORGANIZATION_ROLE ( 'design_owner' ) ;
#105 = CARTESIAN_POINT ( 'NONE',  ( -3.600000000000003197, 14.99999999999998579, 0.000000000000000000 ) ) ;
#106 = APPROVAL_DATE_TIME ( #184, #96 ) ;
#107 = PRODUCT_DEFINITION ( 'Î´Öª', '', #171, #90 ) ;
#108 = CC_DESIGN_SECURITY_CLASSIFICATION ( #124, ( #171 ) ) ;
#109 = CC_DESIGN_APPROVAL ( #97, ( #124 ) ) ;
#110 = APPLICATION_CONTEXT ( 'configuration controlled 3d designs of mechanical parts and assemblies' ) ;
#111 = VERTEX_POINT ( 'NONE', #43 ) ;
#112 = FACE_OUTER_BOUND ( 'NONE', #169, .T. ) ;
#113 = PERSON_AND_ORGANIZATION_ROLE ( 'creator' ) ;
#114 = CARTESIAN_POINT ( 'NONE',  ( -105.7799945562659758, -1.295621596120177799E-14, 0.000000000000000000 ) ) ;
#115 = CALENDAR_DATE ( 2024, 10, 5 ) ;
#116 = ORIENTED_EDGE ( 'NONE', *, *, #56, .T. ) ;
#117 = PERSON ( 'Î´Ö¸¶¨', 'Î´Ö¸¶¨', 'Î´Ö¸¶¨', ('Î´Ö¸¶¨'), ('Î´Ö¸¶¨'), ('Î´Ö¸¶¨') ) ;
#118 = PERSON_AND_ORGANIZATION ( #117, #10 ) ;
#119 = DIRECTION ( 'NONE',  ( -1.156482317317871478E-16, 1.000000000000000000, 0.000000000000000000 ) ) ;
#120 = CARTESIAN_POINT ( 'NONE',  ( 0.000000000000000000, 0.000000000000000000, 0.000000000000000000 ) ) ;
#121 = CARTESIAN_POINT ( 'NONE',  ( -3.599999999999999645, -4.408728476930471151E-16, 0.000000000000000000 ) ) ;
#122 = APPROVAL_ROLE ( '' ) ;
#123 = DIRECTION ( 'NONE',  ( -1.156482317317871478E-16, 1.000000000000000000, 0.000000000000000000 ) ) ;
#124 = SECURITY_CLASSIFICATION ( '', '', #70 ) ;
#125 = CC_DESIGN_DATE_AND_TIME_ASSIGNMENT ( #162, #100, ( #107 ) ) ;
#126 = ORIENTED_EDGE ( 'NONE', *, *, #58, .F. ) ;
#127 = APPROVAL_PERSON_ORGANIZATION ( #118, #96, #153 ) ;
#128 = CC_DESIGN_PERSON_AND_ORGANIZATION_ASSIGNMENT ( #64, #132, ( #107 ) ) ;
#129 = CIRCLE ( 'NONE', #180, 103.2800000000000011 ) ;
#130 = DIRECTION ( 'NONE',  ( 1.000000000000000000, 1.224646799147353207E-16, -0.000000000000000000 ) ) ;
#131 = DIRECTION ( 'NONE',  ( 1.000000000000000000, 1.224646799147353207E-16, -0.000000000000000000 ) ) ;
#132 = PERSON_AND_ORGANIZATION_ROLE ( 'creator' ) ;
#133 = PERSON_AND_ORGANIZATION ( #117, #10 ) ;
#134 = DIRECTION ( 'NONE',  ( -1.224646799147352961E-16, 1.000000000000000000, 0.000000000000000000 ) ) ;
#135 = CARTESIAN_POINT ( 'NONE',  ( 1.836970198721029589E-15, -15.00000000000000000, 1.836970198721029589E-15 ) ) ;
#136 = DIRECTION ( 'NONE',  ( 0.000000000000000000, -1.000000000000000000, 1.224646799147353207E-16 ) ) ;
#137 = CC_DESIGN_PERSON_AND_ORGANIZATION_ASSIGNMENT ( #177, #113, ( #171 ) ) ;
#138 = CALENDAR_DATE ( 2024, 10, 5 ) ;
#139 = AXIS2_PLACEMENT_3D ( 'NONE', #55, #66, #123 ) ;
#140 = ORIENTED_EDGE ( 'NONE', *, *, #189, .F. ) ;
#141 = ADVANCED_FACE ( 'NONE', ( #89 ), #28, .T. ) ;
#142 = AXIS2_PLACEMENT_3D ( 'NONE', #103, #93, #193 ) ;
#143 = CARTESIAN_POINT ( 'NONE',  ( 0.000000000000000000, 0.000000000000000000, 0.000000000000000000 ) ) ;
#144 = CC_DESIGN_DATE_AND_TIME_ASSIGNMENT ( #88, #92, ( #124 ) ) ;
#145 = COORDINATED_UNIVERSAL_TIME_OFFSET ( 8, 0, .AHEAD. ) ;
#146 = DIRECTION ( 'NONE',  ( 1.000000000000000000, 1.224646799147353207E-16, -0.000000000000000000 ) ) ;
#147 = DIRECTION ( 'NONE',  ( 1.000000000000000000, 0.000000000000000000, 0.000000000000000000 ) ) ;
#148 = AXIS2_PLACEMENT_3D ( 'NONE', #181, #8, #136 ) ;
#149 = CARTESIAN_POINT ( 'NONE',  ( 7.245382166495425289E-16, 8.873034078797938103E-32, 0.000000000000000000 ) ) ;
#150 =( NAMED_UNIT ( * ) PLANE_ANGLE_UNIT ( ) SI_UNIT ( $, .RADIAN. ) );
#151 = CIRCLE ( 'NONE', #94, 15.00000000000000000 ) ;
#152 = CARTESIAN_POINT ( 'NONE',  ( -1.112431982071487060E-15, 15.00000000000000000, 0.000000000000000000 ) ) ;
#153 = APPROVAL_ROLE ( '' ) ;
#154 = EDGE_CURVE ( 'NONE', #111, #59, #156, .T. ) ;
#155 = TOROIDAL_SURFACE ( 'NONE', #60, -0.03353293412615860475, 103.2800000000000011 ) ;
#156 = CIRCLE ( 'NONE', #148, 103.2800000000000011 ) ;
#157 = ORIENTED_EDGE ( 'NONE', *, *, #154, .F. ) ;
#158 = DATE_AND_TIME ( #95, #1 ) ;
#159 = EDGE_CURVE ( 'NONE', #46, #48, #26, .T. ) ;
#160 = FACE_OUTER_BOUND ( 'NONE', #174, .T. ) ;
#161 = DIRECTION ( 'NONE',  ( -1.224646799147352961E-16, 1.000000000000000000, 0.000000000000000000 ) ) ;
#162 = DATE_AND_TIME ( #72, #34 ) ;
#163 = DIRECTION ( 'NONE',  ( -0.000000000000000000, 0.000000000000000000, -1.000000000000000000 ) ) ;
#164 = COORDINATED_UNIVERSAL_TIME_OFFSET ( 8, 0, .AHEAD. ) ;
#165 = AXIS2_PLACEMENT_3D ( 'NONE', #149, #146, #134 ) ;
#166 = DIRECTION ( 'NONE',  ( 1.000000000000000000, 1.224646799147353207E-16, -0.000000000000000000 ) ) ;
#167 = APPROVAL_STATUS ( 'not_yet_approved' ) ;
#168 = ORIENTED_EDGE ( 'NONE', *, *, #173, .T. ) ;
#169 = EDGE_LOOP ( 'NONE', ( #157, #84, #16 ) ) ;
#170 = CC_DESIGN_PERSON_AND_ORGANIZATION_ASSIGNMENT ( #133, #104, ( #35 ) ) ;
#171 = PRODUCT_DEFINITION_FORMATION_WITH_SPECIFIED_SOURCE ( 'ÈÎºÎ', '', #35, .NOT_KNOWN. ) ;
#172 = AXIS2_PLACEMENT_3D ( 'NONE', #5, #131, #38 ) ;
#173 = EDGE_CURVE ( 'NONE', #46, #111, #78, .T. ) ;
#174 = EDGE_LOOP ( 'NONE', ( #21, #178, #87 ) ) ;
#175 = AXIS2_PLACEMENT_3D ( 'NONE', #143, #130, #161 ) ;
#176 = FACE_OUTER_BOUND ( 'NONE', #79, .T. ) ;
#177 = PERSON_AND_ORGANIZATION ( #117, #10 ) ;
#178 = ORIENTED_EDGE ( 'NONE', *, *, #154, .T. ) ;
#179 = PERSON_AND_ORGANIZATION_ROLE ( 'design_supplier' ) ;
#180 = AXIS2_PLACEMENT_3D ( 'NONE', #71, #163, #68 ) ;
#181 = CARTESIAN_POINT ( 'NONE',  ( -105.7799945562659758, 0.03353293412614564983, -4.106600044361918268E-18 ) ) ;
#182 =( LENGTH_UNIT ( ) NAMED_UNIT ( * ) SI_UNIT ( .MILLI., .METRE. ) );
#183 = CARTESIAN_POINT ( 'NONE',  ( 7.245382166495425289E-16, 8.873034078797938103E-32, 0.000000000000000000 ) ) ;
#184 = DATE_AND_TIME ( #138, #91 ) ;
#185 = DIRECTION ( 'NONE',  ( 1.000000000000000000, 1.224646799147353207E-16, -0.000000000000000000 ) ) ;
#186 = CC_DESIGN_PERSON_AND_ORGANIZATION_ASSIGNMENT ( #86, #179, ( #171 ) ) ;
#187 = VECTOR ( 'NONE', #42, 1000.000000000000000 ) ;
#188 = AXIS2_PLACEMENT_3D ( 'NONE', #121, #185, #119 ) ;
#189 = EDGE_CURVE ( 'NONE', #74, #48, #4, .T. ) ;
#190 = ORIENTED_EDGE ( 'NONE', *, *, #80, .F. ) ;
#191 = CARTESIAN_POINT ( 'NONE',  ( -105.7799945562659758, -1.295621596120177799E-14, 0.000000000000000000 ) ) ;
#192 = UNCERTAINTY_MEASURE_WITH_UNIT (LENGTH_MEASURE( 1.000000000000000082E-05 ), #182, 'distance_accuracy_value', 'NONE');
#193 = DIRECTION ( 'NONE',  ( -1.224646799147353207E-16, 1.000000000000000000, 0.000000000000000000 ) ) ;
#194 = DIRECTION ( 'NONE',  ( 1.000000000000000000, 1.224646799147353207E-16, -0.000000000000000000 ) ) ;
#195 =( NAMED_UNIT ( * ) SI_UNIT ( $, .STERADIAN. ) SOLID_ANGLE_UNIT ( ) );
#196 = CARTESIAN_POINT ( 'NONE',  ( -1.836970198721029589E-15, 15.00000000000000000, 0.000000000000000000 ) ) ;
#197 = AXIS2_PLACEMENT_3D ( 'NONE', #191, #6, #23 ) ;
#198 = EDGE_LOOP ( 'NONE', ( #99, #3 ) ) ;
#199 = APPROVAL_PERSON_ORGANIZATION ( #54, #97, #122 ) ;
#200 = VECTOR ( 'NONE', #166, 1000.000000000000000 ) ;
#201 = DIRECTION ( 'NONE',  ( -1.224646799147353207E-16, 1.000000000000000000, 0.000000000000000000 ) ) ;
ENDSEC;
END-ISO-10303-21;
