ISO-10303-21;
HEADER;
FILE_DESCRIPTION (( 'STEP AP214' ),
    '1' );
FILE_NAME ('GL13-006A-008.STEP',
    '2022-10-25T12:36:07',
    ( '' ),
    ( '' ),
    'SwSTEP 2.0',
    'SolidWorks 2022',
    '' );
FILE_SCHEMA (( 'AUTOMOTIVE_DESIGN' ));
ENDSEC;

DATA;
#1 =( LENGTH_UNIT ( ) NAMED_UNIT ( * ) SI_UNIT ( .MILLI., .METRE. ) );
#2 = APPLICATION_PROTOCOL_DEFINITION ( 'draft international standard', 'automotive_design', 1998, #94 ) ;
#3 =( NAMED_UNIT ( * ) SI_UNIT ( $, .STERADIAN. ) SOLID_ANGLE_UNIT ( ) );
#4 = AXIS2_PLACEMENT_3D ( 'NONE', #229, #230, #251 ) ;
#5 = VERTEX_POINT ( 'NONE', #172 ) ;
#6 = ORIENTED_EDGE ( 'NONE', *, *, #184, .T. ) ;
#7 = UNCERTAINTY_MEASURE_WITH_UNIT (LENGTH_MEASURE( 1.000000000000000082E-05 ), #1, 'distance_accuracy_value', 'NONE');
#8 = CARTESIAN_POINT ( 'NONE',  ( 0.000000000000000000, 0.000000000000000000, 5.629999745421603308 ) ) ;
#9 = DIRECTION ( 'NONE',  ( 1.000000000000000000, 0.000000000000000000, 0.000000000000000000 ) ) ;
#10 = ORIENTED_EDGE ( 'NONE', *, *, #142, .T. ) ;
#11 = ADVANCED_FACE ( 'NONE', ( #14 ), #35, .F. ) ;
#12 = LINE ( 'NONE', #99, #158 ) ;
#13 =( NAMED_UNIT ( * ) SI_UNIT ( $, .STERADIAN. ) SOLID_ANGLE_UNIT ( ) );
#14 = FACE_OUTER_BOUND ( 'NONE', #57, .T. ) ;
#15 = DIRECTION ( 'NONE',  ( -0.000000000000000000, -0.000000000000000000, 1.000000000000000000 ) ) ;
#16 = AXIS2_PLACEMENT_3D ( 'NONE', #29, #116, #9 ) ;
#17 = DIRECTION ( 'NONE',  ( -0.000000000000000000, -0.000000000000000000, 1.000000000000000000 ) ) ;
#18 = CARTESIAN_POINT ( 'NONE',  ( 0.000000000000000000, 0.000000000000000000, 2.589999999999995861 ) ) ;
#19 = DIRECTION ( 'NONE',  ( 0.000000000000000000, -1.000000000000000000, 0.000000000000000000 ) ) ;
#20 = CYLINDRICAL_SURFACE ( 'NONE', #131, 3.000000000000000000 ) ;
#21 = PRODUCT_RELATED_PRODUCT_CATEGORY ( 'part', '', ( #213 ) ) ;
#22 = CARTESIAN_POINT ( 'NONE',  ( 3.000000000000000000, 0.000000000000000000, 0.2000000000000016209 ) ) ;
#23 = AXIS2_PLACEMENT_3D ( 'NONE', #202, #223, #256 ) ;
#24 = EDGE_LOOP ( 'NONE', ( #111, #45, #241, #221 ) ) ;
#25 = ORIENTED_EDGE ( 'NONE', *, *, #234, .F. ) ;
#26 = VECTOR ( 'NONE', #102, 1000.000000000000000 ) ;
#27 =( GEOMETRIC_REPRESENTATION_CONTEXT ( 3 ) GLOBAL_UNCERTAINTY_ASSIGNED_CONTEXT ( ( #242 ) ) GLOBAL_UNIT_ASSIGNED_CONTEXT ( ( #233, #153, #3 ) ) REPRESENTATION_CONTEXT ( 'NONE', 'WORKASPACE' ) );
#28 = ORIENTED_EDGE ( 'NONE', *, *, #40, .F. ) ;
#29 = CARTESIAN_POINT ( 'NONE',  ( 0.000000000000000000, 0.000000000000000000, 0.2000000000000016209 ) ) ;
#30 = ORIENTED_EDGE ( 'NONE', *, *, #134, .T. ) ;
#31 = EDGE_CURVE ( 'NONE', #55, #98, #205, .T. ) ;
#32 = EDGE_CURVE ( 'NONE', #198, #74, #262, .T. ) ;
#33 = FILL_AREA_STYLE_COLOUR ( '', #144 ) ;
#34 =( NAMED_UNIT ( * ) PLANE_ANGLE_UNIT ( ) SI_UNIT ( $, .RADIAN. ) );
#35 = TOROIDAL_SURFACE ( 'NONE', #124, 0.001450109468709333271, 4.129999999999998117 ) ;
#36 = FILL_AREA_STYLE_COLOUR ( '', #64 ) ;
#37 = VERTEX_POINT ( 'NONE', #244 ) ;
#38 = AXIS2_PLACEMENT_3D ( 'NONE', #109, #132, #177 ) ;
#39 = DIRECTION ( 'NONE',  ( 1.000000000000000000, 0.000000000000000000, 0.000000000000000000 ) ) ;
#40 = EDGE_CURVE ( 'NONE', #5, #55, #211, .T. ) ;
#41 = MANIFOLD_SOLID_BREP ( 'µ¹½Ç2', #48 ) ;
#42 = FACE_OUTER_BOUND ( 'NONE', #83, .T. ) ;
#43 = STYLED_ITEM ( 'NONE', ( #215 ), #265 ) ;
#44 = CONICAL_SURFACE ( 'NONE', #79, 2.901002647844631799, 0.7853981633974351784 ) ;
#45 = ORIENTED_EDGE ( 'NONE', *, *, #32, .T. ) ;
#46 = CARTESIAN_POINT ( 'NONE',  ( 0.000000000000000000, 0.000000000000000000, 0.2000000000000016209 ) ) ;
#47 = VERTEX_POINT ( 'NONE', #228 ) ;
#48 = CLOSED_SHELL ( 'NONE', ( #84, #112, #253, #11, #67, #65, #155, #119, #133 ) ) ;
#49 = AXIS2_PLACEMENT_3D ( 'NONE', #167, #240, #54 ) ;
#50 = ORIENTED_EDGE ( 'NONE', *, *, #110, .T. ) ;
#51 = APPLICATION_PROTOCOL_DEFINITION ( 'draft international standard', 'automotive_design', 1998, #159 ) ;
#52 = EDGE_CURVE ( 'NONE', #37, #5, #130, .T. ) ;
#53 = EDGE_CURVE ( 'NONE', #74, #98, #127, .T. ) ;
#54 = DIRECTION ( 'NONE',  ( -1.000000000000000000, 0.000000000000000000, 0.000000000000000000 ) ) ;
#55 = VERTEX_POINT ( 'NONE', #59 ) ;
#56 = DIRECTION ( 'NONE',  ( -0.000000000000000000, -0.000000000000000000, 1.000000000000000000 ) ) ;
#57 = EDGE_LOOP ( 'NONE', ( #257, #135, #139 ) ) ;
#58 = CIRCLE ( 'NONE', #71, 3.000000000000000000 ) ;
#59 = CARTESIAN_POINT ( 'NONE',  ( -2.901002647844631799, 3.552703607000925438E-16, 2.688997352155366727 ) ) ;
#60 = FACE_OUTER_BOUND ( 'NONE', #91, .T. ) ;
#61 = PRESENTATION_STYLE_ASSIGNMENT (( #203 ) ) ;
#62 = CARTESIAN_POINT ( 'NONE',  ( -3.000000000000000000, 3.673940397442059868E-16, 1.500000000000000000 ) ) ;
#63 = DIRECTION ( 'NONE',  ( 0.000000000000000000, 0.000000000000000000, -1.000000000000000000 ) ) ;
#64 = COLOUR_RGB ( '',1.000000000000000000, 1.000000000000000000, 1.000000000000000000 ) ;
#65 = ADVANCED_FACE ( 'NONE', ( #226 ), #128, .T. ) ;
#66 = CARTESIAN_POINT ( 'NONE',  ( 3.000000000000000000, 0.000000000000000000, 2.589999999999995861 ) ) ;
#67 = ADVANCED_FACE ( 'NONE', ( #185 ), #68, .F. ) ;
#68 = TOROIDAL_SURFACE ( 'NONE', #149, 0.001450109468709333271, 4.129999999999998117 ) ;
#69 = VECTOR ( 'NONE', #209, 1000.000000000000000 ) ;
#70 = EDGE_CURVE ( 'NONE', #47, #198, #193, .T. ) ;
#71 = AXIS2_PLACEMENT_3D ( 'NONE', #80, #63, #87 ) ;
#72 = ORIENTED_EDGE ( 'NONE', *, *, #152, .T. ) ;
#73 = VERTEX_POINT ( 'NONE', #243 ) ;
#74 = VERTEX_POINT ( 'NONE', #97 ) ;
#75 = DIRECTION ( 'NONE',  ( 1.000000000000000000, 0.000000000000000000, 0.000000000000000000 ) ) ;
#76 = MECHANICAL_DESIGN_GEOMETRIC_PRESENTATION_REPRESENTATION (  '', ( #161 ), #179 ) ;
#77 = CARTESIAN_POINT ( 'NONE',  ( 0.000000000000000000, 0.000000000000000000, 0.2000000000000016209 ) ) ;
#78 = FACE_OUTER_BOUND ( 'NONE', #122, .T. ) ;
#79 = AXIS2_PLACEMENT_3D ( 'NONE', #208, #171, #247 ) ;
#80 = CARTESIAN_POINT ( 'NONE',  ( 0.000000000000000000, 0.000000000000000000, 2.589999999999995861 ) ) ;
#81 = SURFACE_STYLE_FILL_AREA ( #264 ) ;
#82 = CARTESIAN_POINT ( 'NONE',  ( -2.799999999999998046, 3.551475717527323339E-16, 1.836970198721029934E-16 ) ) ;
#83 = EDGE_LOOP ( 'NONE', ( #258, #25, #157, #181 ) ) ;
#84 = ADVANCED_FACE ( 'NONE', ( #78 ), #252, .T. ) ;
#85 = PLANE ( 'NONE',  #239 ) ;
#86 = MECHANICAL_DESIGN_GEOMETRIC_PRESENTATION_REPRESENTATION (  '', ( #43 ), #27 ) ;
#87 = DIRECTION ( 'NONE',  ( -1.000000000000000000, 0.000000000000000000, 0.000000000000000000 ) ) ;
#88 = CONICAL_SURFACE ( 'NONE', #16, 3.000000000000000000, 0.7853981633974492782 ) ;
#89 = SURFACE_STYLE_USAGE ( .BOTH. , #108 ) ;
#90 = CIRCLE ( 'NONE', #4, 2.799999999999998046 ) ;
#91 = EDGE_LOOP ( 'NONE', ( #201, #120 ) ) ;
#92 = EDGE_CURVE ( 'NONE', #73, #74, #214, .T. ) ;
#93 = AXIS2_PLACEMENT_3D ( 'NONE', #77, #165, #245 ) ;
#94 = APPLICATION_CONTEXT ( 'automotive_design' ) ;
#95 = CARTESIAN_POINT ( 'NONE',  ( 0.000000000000000000, 0.000000000000000000, 1.500000000000000000 ) ) ;
#96 = ORIENTED_EDGE ( 'NONE', *, *, #70, .F. ) ;
#97 = CARTESIAN_POINT ( 'NONE',  ( -3.000000000000000000, 3.673940397442059868E-16, 0.2000000000000016209 ) ) ;
#98 = VERTEX_POINT ( 'NONE', #220 ) ;
#99 = CARTESIAN_POINT ( 'NONE',  ( 2.901002647844631799, 3.552703607000924945E-16, 2.688997352155366727 ) ) ;
#100 = FILL_AREA_STYLE ('',( #36 ) ) ;
#101 = CARTESIAN_POINT ( 'NONE',  ( -3.000000000000000000, 3.673940397442059868E-16, 0.2000000000000016209 ) ) ;
#102 = DIRECTION ( 'NONE',  ( -0.000000000000000000, -0.000000000000000000, 1.000000000000000000 ) ) ;
#103 = DIRECTION ( 'NONE',  ( 1.000000000000000000, 0.000000000000000000, 0.000000000000000000 ) ) ;
#104 =( NAMED_UNIT ( * ) PLANE_ANGLE_UNIT ( ) SI_UNIT ( $, .RADIAN. ) );
#105 = AXIS2_PLACEMENT_3D ( 'NONE', #222, #56, #190 ) ;
#106 = AXIS2_PLACEMENT_3D ( 'NONE', #107, #194, #151 ) ;
#107 = CARTESIAN_POINT ( 'NONE',  ( -0.001450109468709333271, 1.775871919268154040E-19, 5.629999745421603308 ) ) ;
#108 = SURFACE_SIDE_STYLE ('',( #188 ) ) ;
#109 = CARTESIAN_POINT ( 'NONE',  ( 0.000000000000000000, 0.000000000000000000, 0.000000000000000000 ) ) ;
#110 = EDGE_CURVE ( 'NONE', #5, #160, #12, .T. ) ;
#111 = ORIENTED_EDGE ( 'NONE', *, *, #259, .F. ) ;
#112 = ADVANCED_FACE ( 'NONE', ( #180 ), #88, .T. ) ;
#113 = ORIENTED_EDGE ( 'NONE', *, *, #32, .F. ) ;
#114 = AXIS2_PLACEMENT_3D ( 'NONE', #118, #19, #148 ) ;
#115 = AXIS2_PLACEMENT_3D ( 'NONE', #18, #147, #227 ) ;
#116 = DIRECTION ( 'NONE',  ( -0.000000000000000000, -0.000000000000000000, 1.000000000000000000 ) ) ;
#117 = EDGE_LOOP ( 'NONE', ( #197, #246, #255 ) ) ;
#118 = CARTESIAN_POINT ( 'NONE',  ( 0.001450109468709333271, 0.000000000000000000, 5.629999745421603308 ) ) ;
#119 = ADVANCED_FACE ( 'NONE', ( #260 ), #199, .T. ) ;
#120 = ORIENTED_EDGE ( 'NONE', *, *, #259, .T. ) ;
#121 = DIRECTION ( 'NONE',  ( 1.000000000000000000, 0.000000000000000000, 0.000000000000000000 ) ) ;
#122 = EDGE_LOOP ( 'NONE', ( #28, #50, #216, #235 ) ) ;
#123 = DIRECTION ( 'NONE',  ( 0.000000000000000000, -0.000000000000000000, 1.000000000000000000 ) ) ;
#124 = AXIS2_PLACEMENT_3D ( 'NONE', #143, #207, #164 ) ;
#125 = AXIS2_PLACEMENT_3D ( 'NONE', #173, #169, #103 ) ;
#126 = LINE ( 'NONE', #225, #189 ) ;
#127 = LINE ( 'NONE', #62, #26 ) ;
#128 = CYLINDRICAL_SURFACE ( 'NONE', #232, 3.000000000000000000 ) ;
#129 = FACE_OUTER_BOUND ( 'NONE', #183, .T. ) ;
#130 = CIRCLE ( 'NONE', #114, 4.129999999999998117 ) ;
#131 = AXIS2_PLACEMENT_3D ( 'NONE', #145, #249, #150 ) ;
#132 = DIRECTION ( 'NONE',  ( 0.000000000000000000, 0.000000000000000000, 1.000000000000000000 ) ) ;
#133 = ADVANCED_FACE ( 'NONE', ( #42 ), #44, .T. ) ;
#134 = EDGE_CURVE ( 'NONE', #98, #160, #58, .T. ) ;
#135 = ORIENTED_EDGE ( 'NONE', *, *, #236, .T. ) ;
#136 = ORIENTED_EDGE ( 'NONE', *, *, #184, .F. ) ;
#137 = AXIS2_PLACEMENT_3D ( 'NONE', #46, #200, #163 ) ;
#138 = ORIENTED_EDGE ( 'NONE', *, *, #92, .T. ) ;
#139 = ORIENTED_EDGE ( 'NONE', *, *, #234, .T. ) ;
#140 = PRODUCT_DEFINITION ( 'Î´Öª', '', #196, #254 ) ;
#141 = DIRECTION ( 'NONE',  ( -0.000000000000000000, -0.000000000000000000, 1.000000000000000000 ) ) ;
#142 = EDGE_CURVE ( 'NONE', #47, #73, #206, .T. ) ;
#143 = CARTESIAN_POINT ( 'NONE',  ( 0.000000000000000000, 0.000000000000000000, 5.629999745421603308 ) ) ;
#144 = COLOUR_RGB ( '',1.000000000000000000, 1.000000000000000000, 1.000000000000000000 ) ;
#145 = CARTESIAN_POINT ( 'NONE',  ( 0.000000000000000000, 0.000000000000000000, 1.500000000000000000 ) ) ;
#146 = CARTESIAN_POINT ( 'NONE',  ( -2.901002647844631799, 0.000000000000000000, 2.688997352155366727 ) ) ;
#147 = DIRECTION ( 'NONE',  ( 0.000000000000000000, 0.000000000000000000, -1.000000000000000000 ) ) ;
#148 = DIRECTION ( 'NONE',  ( 0.000000000000000000, 0.000000000000000000, -1.000000000000000000 ) ) ;
#149 = AXIS2_PLACEMENT_3D ( 'NONE', #8, #182, #261 ) ;
#150 = DIRECTION ( 'NONE',  ( 1.000000000000000000, 0.000000000000000000, 0.000000000000000000 ) ) ;
#151 = DIRECTION ( 'NONE',  ( -1.000000000000000000, 1.224646799147353207E-16, 0.000000000000000000 ) ) ;
#152 = EDGE_CURVE ( 'NONE', #160, #98, #204, .T. ) ;
#153 =( NAMED_UNIT ( * ) PLANE_ANGLE_UNIT ( ) SI_UNIT ( $, .RADIAN. ) );
#154 = SHAPE_DEFINITION_REPRESENTATION ( #156, #265 ) ;
#155 = ADVANCED_FACE ( 'NONE', ( #60 ), #85, .F. ) ;
#156 = PRODUCT_DEFINITION_SHAPE ( 'NONE', 'NONE',  #140 ) ;
#157 = ORIENTED_EDGE ( 'NONE', *, *, #31, .T. ) ;
#158 = VECTOR ( 'NONE', #186, 999.9999999999998863 ) ;
#159 = APPLICATION_CONTEXT ( 'automotive_design' ) ;
#160 = VERTEX_POINT ( 'NONE', #66 ) ;
#161 = STYLED_ITEM ( 'NONE', ( #61 ), #41 ) ;
#162 = ORIENTED_EDGE ( 'NONE', *, *, #53, .T. ) ;
#163 = DIRECTION ( 'NONE',  ( 1.000000000000000000, 0.000000000000000000, 0.000000000000000000 ) ) ;
#164 = DIRECTION ( 'NONE',  ( 1.000000000000000000, 0.000000000000000000, 0.000000000000000000 ) ) ;
#165 = DIRECTION ( 'NONE',  ( -0.000000000000000000, -0.000000000000000000, 1.000000000000000000 ) ) ;
#166 = ORIENTED_EDGE ( 'NONE', *, *, #218, .F. ) ;
#167 = CARTESIAN_POINT ( 'NONE',  ( 0.000000000000000000, 0.000000000000000000, 2.688997352155366727 ) ) ;
#168 =( LENGTH_UNIT ( ) NAMED_UNIT ( * ) SI_UNIT ( .MILLI., .METRE. ) );
#169 = DIRECTION ( 'NONE',  ( -0.000000000000000000, -0.000000000000000000, 1.000000000000000000 ) ) ;
#170 = SURFACE_SIDE_STYLE ('',( #81 ) ) ;
#171 = DIRECTION ( 'NONE',  ( 0.000000000000000000, 0.000000000000000000, -1.000000000000000000 ) ) ;
#172 = CARTESIAN_POINT ( 'NONE',  ( 2.901002647844631799, 0.000000000000000000, 2.688997352155366727 ) ) ;
#173 = CARTESIAN_POINT ( 'NONE',  ( 0.000000000000000000, 0.000000000000000000, 2.688997352155366727 ) ) ;
#174 = CIRCLE ( 'NONE', #125, 2.901002647844632243 ) ;
#175 = PRODUCT_CONTEXT ( 'NONE', #94, 'mechanical' ) ;
#176 = CIRCLE ( 'NONE', #224, 3.000000000000000000 ) ;
#177 = DIRECTION ( 'NONE',  ( 1.000000000000000000, 0.000000000000000000, 0.000000000000000000 ) ) ;
#178 = EDGE_LOOP ( 'NONE', ( #217, #6, #238, #72 ) ) ;
#179 =( GEOMETRIC_REPRESENTATION_CONTEXT ( 3 ) GLOBAL_UNCERTAINTY_ASSIGNED_CONTEXT ( ( #263 ) ) GLOBAL_UNIT_ASSIGNED_CONTEXT ( ( #168, #34, #13 ) ) REPRESENTATION_CONTEXT ( 'NONE', 'WORKASPACE' ) );
#180 = FACE_OUTER_BOUND ( 'NONE', #24, .T. ) ;
#181 = ORIENTED_EDGE ( 'NONE', *, *, #152, .F. ) ;
#182 = DIRECTION ( 'NONE',  ( -0.000000000000000000, -0.000000000000000000, 1.000000000000000000 ) ) ;
#183 = EDGE_LOOP ( 'NONE', ( #138, #162, #30, #166 ) ) ;
#184 = EDGE_CURVE ( 'NONE', #74, #73, #176, .T. ) ;
#185 = FACE_OUTER_BOUND ( 'NONE', #117, .T. ) ;
#186 = DIRECTION ( 'NONE',  ( 0.7071067811865383579, 8.659560562354820692E-17, -0.7071067811865567876 ) ) ;
#187 = DIRECTION ( 'NONE',  ( -0.7071067811865383579, 0.000000000000000000, -0.7071067811865567876 ) ) ;
#188 = SURFACE_STYLE_FILL_AREA ( #100 ) ;
#189 = VECTOR ( 'NONE', #15, 1000.000000000000000 ) ;
#190 = DIRECTION ( 'NONE',  ( 1.000000000000000000, 0.000000000000000000, 0.000000000000000000 ) ) ;
#191 = DIRECTION ( 'NONE',  ( -0.7071067811865483499, 8.659560562354943952E-17, 0.7071067811865467956 ) ) ;
#192 = CARTESIAN_POINT ( 'NONE',  ( 0.000000000000000000, 0.000000000000000000, 1.836970198721029934E-16 ) ) ;
#193 = CIRCLE ( 'NONE', #23, 2.799999999999998046 ) ;
#194 = DIRECTION ( 'NONE',  ( 1.224646799147353207E-16, 1.000000000000000000, 0.000000000000000000 ) ) ;
#195 = PRESENTATION_LAYER_ASSIGNMENT (  '', '', ( #161 ) ) ;
#196 = PRODUCT_DEFINITION_FORMATION_WITH_SPECIFIED_SOURCE ( 'ÈÎºÎ', '', #213, .NOT_KNOWN. ) ;
#197 = ORIENTED_EDGE ( 'NONE', *, *, #236, .F. ) ;
#198 = VERTEX_POINT ( 'NONE', #82 ) ;
#199 = CONICAL_SURFACE ( 'NONE', #93, 3.000000000000000000, 0.7853981633974492782 ) ;
#200 = DIRECTION ( 'NONE',  ( -0.000000000000000000, -0.000000000000000000, 1.000000000000000000 ) ) ;
#201 = ORIENTED_EDGE ( 'NONE', *, *, #70, .T. ) ;
#202 = CARTESIAN_POINT ( 'NONE',  ( 0.000000000000000000, 0.000000000000000000, 1.836970198721029934E-16 ) ) ;
#203 = SURFACE_STYLE_USAGE ( .BOTH. , #170 ) ;
#204 = CIRCLE ( 'NONE', #115, 3.000000000000000000 ) ;
#205 = LINE ( 'NONE', #146, #231 ) ;
#206 = LINE ( 'NONE', #22, #69 ) ;
#207 = DIRECTION ( 'NONE',  ( -0.000000000000000000, -0.000000000000000000, 1.000000000000000000 ) ) ;
#208 = CARTESIAN_POINT ( 'NONE',  ( 0.000000000000000000, 0.000000000000000000, 2.688997352155366727 ) ) ;
#209 = DIRECTION ( 'NONE',  ( 0.7071067811865483499, 0.000000000000000000, 0.7071067811865467956 ) ) ;
#210 =( NAMED_UNIT ( * ) SI_UNIT ( $, .STERADIAN. ) SOLID_ANGLE_UNIT ( ) );
#211 = CIRCLE ( 'NONE', #105, 2.901002647844632243 ) ;
#212 =( GEOMETRIC_REPRESENTATION_CONTEXT ( 3 ) GLOBAL_UNCERTAINTY_ASSIGNED_CONTEXT ( ( #7 ) ) GLOBAL_UNIT_ASSIGNED_CONTEXT ( ( #1, #104, #210 ) ) REPRESENTATION_CONTEXT ( 'NONE', 'WORKASPACE' ) );
#213 = PRODUCT ( 'GL13-006A-008', 'GL13-006A-008', '', ( #175 ) ) ;
#214 = CIRCLE ( 'NONE', #137, 3.000000000000000000 ) ;
#215 = PRESENTATION_STYLE_ASSIGNMENT (( #89 ) ) ;
#216 = ORIENTED_EDGE ( 'NONE', *, *, #134, .F. ) ;
#217 = ORIENTED_EDGE ( 'NONE', *, *, #53, .F. ) ;
#218 = EDGE_CURVE ( 'NONE', #73, #160, #126, .T. ) ;
#219 = CIRCLE ( 'NONE', #106, 4.129999999999998117 ) ;
#220 = CARTESIAN_POINT ( 'NONE',  ( -3.000000000000000000, 3.673940397442059868E-16, 2.589999999999995861 ) ) ;
#221 = ORIENTED_EDGE ( 'NONE', *, *, #142, .F. ) ;
#222 = CARTESIAN_POINT ( 'NONE',  ( 0.000000000000000000, 0.000000000000000000, 2.688997352155366727 ) ) ;
#223 = DIRECTION ( 'NONE',  ( 0.000000000000000000, 0.000000000000000000, -1.000000000000000000 ) ) ;
#224 = AXIS2_PLACEMENT_3D ( 'NONE', #266, #17, #39 ) ;
#225 = CARTESIAN_POINT ( 'NONE',  ( 3.000000000000000000, 0.000000000000000000, 1.500000000000000000 ) ) ;
#226 = FACE_OUTER_BOUND ( 'NONE', #178, .T. ) ;
#227 = DIRECTION ( 'NONE',  ( -1.000000000000000000, 0.000000000000000000, 0.000000000000000000 ) ) ;
#228 = CARTESIAN_POINT ( 'NONE',  ( 2.799999999999998046, 0.000000000000000000, 1.836970198721029934E-16 ) ) ;
#229 = CARTESIAN_POINT ( 'NONE',  ( 0.000000000000000000, 0.000000000000000000, 1.836970198721029934E-16 ) ) ;
#230 = DIRECTION ( 'NONE',  ( 0.000000000000000000, 0.000000000000000000, -1.000000000000000000 ) ) ;
#231 = VECTOR ( 'NONE', #187, 999.9999999999998863 ) ;
#232 = AXIS2_PLACEMENT_3D ( 'NONE', #95, #141, #75 ) ;
#233 =( LENGTH_UNIT ( ) NAMED_UNIT ( * ) SI_UNIT ( .MILLI., .METRE. ) );
#234 = EDGE_CURVE ( 'NONE', #55, #5, #174, .T. ) ;
#235 = ORIENTED_EDGE ( 'NONE', *, *, #31, .F. ) ;
#236 = EDGE_CURVE ( 'NONE', #37, #55, #219, .T. ) ;
#237 = EDGE_LOOP ( 'NONE', ( #113, #96, #10, #136 ) ) ;
#238 = ORIENTED_EDGE ( 'NONE', *, *, #218, .T. ) ;
#239 = AXIS2_PLACEMENT_3D ( 'NONE', #192, #123, #121 ) ;
#240 = DIRECTION ( 'NONE',  ( 0.000000000000000000, 0.000000000000000000, -1.000000000000000000 ) ) ;
#241 = ORIENTED_EDGE ( 'NONE', *, *, #92, .F. ) ;
#242 = UNCERTAINTY_MEASURE_WITH_UNIT (LENGTH_MEASURE( 1.000000000000000082E-05 ), #233, 'distance_accuracy_value', 'NONE');
#243 = CARTESIAN_POINT ( 'NONE',  ( 3.000000000000000000, 0.000000000000000000, 0.2000000000000016209 ) ) ;
#244 = CARTESIAN_POINT ( 'NONE',  ( 0.000000000000000000, 0.000000000000000000, 1.500000000000000000 ) ) ;
#245 = DIRECTION ( 'NONE',  ( 1.000000000000000000, 0.000000000000000000, 0.000000000000000000 ) ) ;
#246 = ORIENTED_EDGE ( 'NONE', *, *, #52, .T. ) ;
#247 = DIRECTION ( 'NONE',  ( -1.000000000000000000, 0.000000000000000000, 0.000000000000000000 ) ) ;
#248 = VECTOR ( 'NONE', #191, 1000.000000000000000 ) ;
#249 = DIRECTION ( 'NONE',  ( -0.000000000000000000, -0.000000000000000000, 1.000000000000000000 ) ) ;
#250 = PRESENTATION_LAYER_ASSIGNMENT (  '', '', ( #43 ) ) ;
#251 = DIRECTION ( 'NONE',  ( 1.000000000000000000, 0.000000000000000000, 0.000000000000000000 ) ) ;
#252 = CONICAL_SURFACE ( 'NONE', #49, 2.901002647844631799, 0.7853981633974351784 ) ;
#253 = ADVANCED_FACE ( 'NONE', ( #129 ), #20, .T. ) ;
#254 = PRODUCT_DEFINITION_CONTEXT ( 'detailed design', #159, 'design' ) ;
#255 = ORIENTED_EDGE ( 'NONE', *, *, #40, .T. ) ;
#256 = DIRECTION ( 'NONE',  ( 1.000000000000000000, 0.000000000000000000, 0.000000000000000000 ) ) ;
#257 = ORIENTED_EDGE ( 'NONE', *, *, #52, .F. ) ;
#258 = ORIENTED_EDGE ( 'NONE', *, *, #110, .F. ) ;
#259 = EDGE_CURVE ( 'NONE', #198, #47, #90, .T. ) ;
#260 = FACE_OUTER_BOUND ( 'NONE', #237, .T. ) ;
#261 = DIRECTION ( 'NONE',  ( 1.000000000000000000, 0.000000000000000000, 0.000000000000000000 ) ) ;
#262 = LINE ( 'NONE', #101, #248 ) ;
#263 = UNCERTAINTY_MEASURE_WITH_UNIT (LENGTH_MEASURE( 1.000000000000000082E-05 ), #168, 'distance_accuracy_value', 'NONE');
#264 = FILL_AREA_STYLE ('',( #33 ) ) ;
#265 = ADVANCED_BREP_SHAPE_REPRESENTATION ( 'GL13-006A-008', ( #41, #38 ), #212 ) ;
#266 = CARTESIAN_POINT ( 'NONE',  ( 0.000000000000000000, 0.000000000000000000, 0.2000000000000016209 ) ) ;
ENDSEC;
END-ISO-10303-21;
