ISO-10303-21;
HEADER;
FILE_DESCRIPTION (( 'STEP AP214' ),
    '1' );
FILE_NAME ('130000.STEP',
    '2019-06-28T01:44:01',
    ( '' ),
    ( '' ),
    'SwSTEP 2.0',
    'SolidWorks 2016',
    '' );
FILE_SCHEMA (( 'AUTOMOTIVE_DESIGN' ));
ENDSEC;

DATA;
#1 = CARTESIAN_POINT ( 'NONE',  ( 3.269613268749068000, 3.261130143649369800, 0.0000000000000000000 ) ) ;
#2 = SPHERICAL_SURFACE ( 'NONE', #186, 2.219999999999998900 ) ;
#3 = DIRECTION ( 'NONE',  ( -1.000000000000000000, -0.0000000000000000000, -0.0000000000000000000 ) ) ;
#4 = ORIENTED_EDGE ( 'NONE', *, *, #25, .F. ) ;
#5 =( LENGTH_UNIT ( ) NAMED_UNIT ( * ) SI_UNIT ( .MILLI., .METRE. ) );
#6 = DIRECTION ( 'NONE',  ( -1.000000000000000000, -0.0000000000000000000, -0.0000000000000000000 ) ) ;
#7 = SURFACE_STYLE_USAGE ( .BOTH. , #130 ) ;
#8 = AXIS2_PLACEMENT_3D ( 'NONE', #104, #60, #125 ) ;
#9 = PRESENTATION_STYLE_ASSIGNMENT (( #145 ) ) ;
#10 = EDGE_LOOP ( 'NONE', ( #196, #126, #172, #214 ) ) ;
#11 = FACE_OUTER_BOUND ( 'NONE', #57, .T. ) ;
#12 =( GEOMETRIC_REPRESENTATION_CONTEXT ( 3 ) GLOBAL_UNCERTAINTY_ASSIGNED_CONTEXT ( ( #120 ) ) GLOBAL_UNIT_ASSIGNED_CONTEXT ( ( #5, #16, #106 ) ) REPRESENTATION_CONTEXT ( 'NONE', 'WORKASPACE' ) );
#13 = CIRCLE ( 'NONE', #202, 1.000000000000001300 ) ;
#14 = UNCERTAINTY_MEASURE_WITH_UNIT (LENGTH_MEASURE( 1.000000000000000100E-005 ), #201, 'distance_accuracy_value', 'NONE');
#15 = AXIS2_PLACEMENT_3D ( 'NONE', #140, #61, #35 ) ;
#16 =( NAMED_UNIT ( * ) PLANE_ANGLE_UNIT ( ) SI_UNIT ( $, .RADIAN. ) );
#17 = DIRECTION ( 'NONE',  ( -1.000000000000000000, -0.0000000000000000000, -0.0000000000000000000 ) ) ;
#18 = ORIENTED_EDGE ( 'NONE', *, *, #128, .F. ) ;
#19 = DIRECTION ( 'NONE',  ( 0.0000000000000000000, 0.0000000000000000000, -1.000000000000000000 ) ) ;
#20 =( NAMED_UNIT ( * ) SI_UNIT ( $, .STERADIAN. ) SOLID_ANGLE_UNIT ( ) );
#21 = FILL_AREA_STYLE_COLOUR ( '', #73 ) ;
#22 = STYLED_ITEM ( 'NONE', ( #94 ), #203 ) ;
#23 = ORIENTED_EDGE ( 'NONE', *, *, #151, .T. ) ;
#24 =( NAMED_UNIT ( * ) PLANE_ANGLE_UNIT ( ) SI_UNIT ( $, .RADIAN. ) );
#25 = EDGE_CURVE ( 'NONE', #76, #114, #92, .T. ) ;
#26 = CIRCLE ( 'NONE', #156, 1.000000000000001300 ) ;
#27 = VERTEX_POINT ( 'NONE', #121 ) ;
#28 = ADVANCED_FACE ( 'NONE', ( #11 ), #62, .F. ) ;
#29 = DIRECTION ( 'NONE',  ( -1.000000000000000000, -0.0000000000000000000, -0.0000000000000000000 ) ) ;
#30 = PRESENTATION_LAYER_ASSIGNMENT (  '', '', ( #22 ) ) ;
#31 = FACE_OUTER_BOUND ( 'NONE', #190, .T. ) ;
#32 = EDGE_CURVE ( 'NONE', #93, #27, #41, .T. ) ;
#33 = APPLICATION_CONTEXT ( 'automotive_design' ) ;
#34 = DIRECTION ( 'NONE',  ( 0.0000000000000000000, 1.224646799147353200E-016, -1.000000000000000000 ) ) ;
#35 = DIRECTION ( 'NONE',  ( 0.0000000000000000000, 0.0000000000000000000, 1.000000000000000000 ) ) ;
#36 = CARTESIAN_POINT ( 'NONE',  ( 0.0000000000000000000, 0.0000000000000000000, 0.0000000000000000000 ) ) ;
#37 = FACE_OUTER_BOUND ( 'NONE', #10, .T. ) ;
#38 = DIRECTION ( 'NONE',  ( 0.0000000000000000000, 1.000000000000000000, 1.224646799147353000E-016 ) ) ;
#39 = DIRECTION ( 'NONE',  ( -1.000000000000000000, -0.0000000000000000000, -0.0000000000000000000 ) ) ;
#40 = AXIS2_PLACEMENT_3D ( 'NONE', #198, #87, #107 ) ;
#41 = CIRCLE ( 'NONE', #219, 2.219999999999998900 ) ;
#42 = VERTEX_POINT ( 'NONE', #230 ) ;
#43 = MECHANICAL_DESIGN_GEOMETRIC_PRESENTATION_REPRESENTATION (  '', ( #22 ), #141 ) ;
#44 = LINE ( 'NONE', #183, #95 ) ;
#45 = PRODUCT ( '130000', '130000', '', ( #166 ) ) ;
#46 = FACE_OUTER_BOUND ( 'NONE', #136, .T. ) ;
#47 = DIRECTION ( 'NONE',  ( 0.0000000000000000000, 1.000000000000000000, 0.0000000000000000000 ) ) ;
#48 = ADVANCED_FACE ( 'NONE', ( #46 ), #2, .F. ) ;
#49 = DIRECTION ( 'NONE',  ( 0.0000000000000000000, -1.224646799147353200E-016, 1.000000000000000000 ) ) ;
#50 = AXIS2_PLACEMENT_3D ( 'NONE', #102, #162, #218 ) ;
#51 = CARTESIAN_POINT ( 'NONE',  ( 3.269613268749068000, 3.261130143649369800, 0.0000000000000000000 ) ) ;
#52 = DIRECTION ( 'NONE',  ( 0.0000000000000000000, 1.000000000000000000, 0.0000000000000000000 ) ) ;
#53 = DIRECTION ( 'NONE',  ( 1.000000000000000000, 0.0000000000000000000, 0.0000000000000000000 ) ) ;
#54 = PRODUCT_DEFINITION_SHAPE ( 'NONE', 'NONE',  #154 ) ;
#55 = CYLINDRICAL_SURFACE ( 'NONE', #173, 1.000000000000000400 ) ;
#56 = CARTESIAN_POINT ( 'NONE',  ( 5.251632441209315200, 4.261130143649370300, 0.0000000000000000000 ) ) ;
#57 = EDGE_LOOP ( 'NONE', ( #158, #23, #119, #143 ) ) ;
#58 = DIRECTION ( 'NONE',  ( 0.0000000000000000000, 0.0000000000000000000, 1.000000000000000000 ) ) ;
#59 =( NAMED_UNIT ( * ) PLANE_ANGLE_UNIT ( ) SI_UNIT ( $, .RADIAN. ) );
#60 = DIRECTION ( 'NONE',  ( -1.000000000000000000, -0.0000000000000000000, -0.0000000000000000000 ) ) ;
#61 = DIRECTION ( 'NONE',  ( -1.000000000000000000, -0.0000000000000000000, -0.0000000000000000000 ) ) ;
#62 = SPHERICAL_SURFACE ( 'NONE', #89, 2.220000000000000600 ) ;
#63 = DIRECTION ( 'NONE',  ( 0.0000000000000000000, 0.0000000000000000000, 1.000000000000000000 ) ) ;
#64 = CYLINDRICAL_SURFACE ( 'NONE', #204, 1.000000000000000400 ) ;
#65 = COLOUR_RGB ( '',1.000000000000000000, 1.000000000000000000, 1.000000000000000000 ) ;
#66 = CARTESIAN_POINT ( 'NONE',  ( 8.709613268749068400, 3.261130143649370700, 0.0000000000000000000 ) ) ;
#67 = FILL_AREA_STYLE ('',( #90 ) ) ;
#68 = CIRCLE ( 'NONE', #50, 1.000000000000001300 ) ;
#69 = DIRECTION ( 'NONE',  ( -1.000000000000000000, -0.0000000000000000000, -0.0000000000000000000 ) ) ;
#70 = CARTESIAN_POINT ( 'NONE',  ( 5.251632441209315200, 2.261130143649369400, -1.224646799147353900E-016 ) ) ;
#71 = PRODUCT_DEFINITION_CONTEXT ( 'detailed design', #187, 'design' ) ;
#72 = CARTESIAN_POINT ( 'NONE',  ( 5.306232639267102900, 3.261130143649369800, 0.0000000000000000000 ) ) ;
#73 = COLOUR_RGB ( '',1.000000000000000000, 1.000000000000000000, 1.000000000000000000 ) ;
#74 = ORIENTED_EDGE ( 'NONE', *, *, #32, .F. ) ;
#75 = EDGE_CURVE ( 'NONE', #205, #93, #26, .T. ) ;
#76 = VERTEX_POINT ( 'NONE', #209 ) ;
#77 = ORIENTED_EDGE ( 'NONE', *, *, #86, .T. ) ;
#78 = EDGE_CURVE ( 'NONE', #42, #182, #44, .T. ) ;
#79 = AXIS2_PLACEMENT_3D ( 'NONE', #36, #185, #53 ) ;
#80 = DIRECTION ( 'NONE',  ( 0.0000000000000000000, 0.0000000000000000000, 1.000000000000000000 ) ) ;
#81 = APPLICATION_PROTOCOL_DEFINITION ( 'draft international standard', 'automotive_design', 1998, #187 ) ;
#82 = EDGE_CURVE ( 'NONE', #117, #27, #148, .T. ) ;
#83 = CARTESIAN_POINT ( 'NONE',  ( 6.727594096288822100, 2.261130143649369800, 0.0000000000000000000 ) ) ;
#84 = ORIENTED_EDGE ( 'NONE', *, *, #78, .F. ) ;
#85 = CARTESIAN_POINT ( 'NONE',  ( 5.251632441209315200, 3.261130143649369800, 0.0000000000000000000 ) ) ;
#86 = EDGE_CURVE ( 'NONE', #96, #115, #123, .T. ) ;
#87 = DIRECTION ( 'NONE',  ( 0.0000000000000000000, 0.0000000000000000000, 1.000000000000000000 ) ) ;
#88 = DIRECTION ( 'NONE',  ( 0.0000000000000000000, 0.0000000000000000000, 1.000000000000000000 ) ) ;
#89 = AXIS2_PLACEMENT_3D ( 'NONE', #51, #100, #47 ) ;
#90 = FILL_AREA_STYLE_COLOUR ( '', #65 ) ;
#91 = SHAPE_DEFINITION_REPRESENTATION ( #54, #133 ) ;
#92 = CIRCLE ( 'NONE', #131, 1.000000000000000400 ) ;
#93 = VERTEX_POINT ( 'NONE', #197 ) ;
#94 = PRESENTATION_STYLE_ASSIGNMENT (( #7 ) ) ;
#95 = VECTOR ( 'NONE', #184, 1000.000000000000000 ) ;
#96 = VERTEX_POINT ( 'NONE', #124 ) ;
#97 = EDGE_CURVE ( 'NONE', #42, #117, #13, .T. ) ;
#98 = DIRECTION ( 'NONE',  ( 0.0000000000000000000, 0.0000000000000000000, 1.000000000000000000 ) ) ;
#99 = CIRCLE ( 'NONE', #213, 1.000000000000000400 ) ;
#100 = DIRECTION ( 'NONE',  ( 0.0000000000000000000, 0.0000000000000000000, -1.000000000000000000 ) ) ;
#101 = ORIENTED_EDGE ( 'NONE', *, *, #75, .F. ) ;
#102 = CARTESIAN_POINT ( 'NONE',  ( 6.727594096288822100, 3.261130143649369800, 0.0000000000000000000 ) ) ;
#103 = ORIENTED_EDGE ( 'NONE', *, *, #82, .T. ) ;
#104 = CARTESIAN_POINT ( 'NONE',  ( 5.251632441209315200, 3.261130143649369800, 0.0000000000000000000 ) ) ;
#105 = DIRECTION ( 'NONE',  ( 0.0000000000000000000, 0.0000000000000000000, 1.000000000000000000 ) ) ;
#106 =( NAMED_UNIT ( * ) SI_UNIT ( $, .STERADIAN. ) SOLID_ANGLE_UNIT ( ) );
#107 = DIRECTION ( 'NONE',  ( 1.000000000000000000, 0.0000000000000000000, 0.0000000000000000000 ) ) ;
#108 = ORIENTED_EDGE ( 'NONE', *, *, #177, .F. ) ;
#109 = CARTESIAN_POINT ( 'NONE',  ( 8.709613268749068400, 3.261130143649370700, 0.0000000000000000000 ) ) ;
#110 =( LENGTH_UNIT ( ) NAMED_UNIT ( * ) SI_UNIT ( .MILLI., .METRE. ) );
#111 = SPHERICAL_SURFACE ( 'NONE', #192, 2.220000000000000600 ) ;
#112 = ORIENTED_EDGE ( 'NONE', *, *, #75, .T. ) ;
#113 = EDGE_CURVE ( 'NONE', #182, #115, #99, .T. ) ;
#114 = VERTEX_POINT ( 'NONE', #56 ) ;
#115 = VERTEX_POINT ( 'NONE', #70 ) ;
#116 = CIRCLE ( 'NONE', #15, 1.000000000000001300 ) ;
#117 = VERTEX_POINT ( 'NONE', #83 ) ;
#118 = ORIENTED_EDGE ( 'NONE', *, *, #78, .T. ) ;
#119 = ORIENTED_EDGE ( 'NONE', *, *, #177, .T. ) ;
#120 = UNCERTAINTY_MEASURE_WITH_UNIT (LENGTH_MEASURE( 1.000000000000000100E-005 ), #5, 'distance_accuracy_value', 'NONE');
#121 = CARTESIAN_POINT ( 'NONE',  ( 6.489613268749068600, 3.261130143649370700, 0.0000000000000000000 ) ) ;
#122 = DIRECTION ( 'NONE',  ( 0.0000000000000000000, 0.0000000000000000000, 1.000000000000000000 ) ) ;
#123 = CIRCLE ( 'NONE', #226, 2.220000000000001100 ) ;
#124 = CARTESIAN_POINT ( 'NONE',  ( 5.489613268749068600, 3.261130143649369800, 0.0000000000000000000 ) ) ;
#125 = DIRECTION ( 'NONE',  ( 0.0000000000000000000, 0.0000000000000000000, 1.000000000000000000 ) ) ;
#126 = ORIENTED_EDGE ( 'NONE', *, *, #32, .T. ) ;
#127 = ORIENTED_EDGE ( 'NONE', *, *, #169, .T. ) ;
#128 = EDGE_CURVE ( 'NONE', #115, #76, #229, .T. ) ;
#129 = DIRECTION ( 'NONE',  ( 0.0000000000000000000, 0.0000000000000000000, 1.000000000000000000 ) ) ;
#130 = SURFACE_SIDE_STYLE ('',( #152 ) ) ;
#131 = AXIS2_PLACEMENT_3D ( 'NONE', #138, #29, #98 ) ;
#132 = SURFACE_STYLE_FILL_AREA ( #67 ) ;
#133 = ADVANCED_BREP_SHAPE_REPRESENTATION ( '130000', ( #203, #79 ), #160 ) ;
#134 = ORIENTED_EDGE ( 'NONE', *, *, #113, .F. ) ;
#135 = SPHERICAL_SURFACE ( 'NONE', #228, 2.219999999999998900 ) ;
#136 = EDGE_LOOP ( 'NONE', ( #74, #101, #207, #103 ) ) ;
#137 = EDGE_CURVE ( 'NONE', #93, #42, #116, .T. ) ;
#138 = CARTESIAN_POINT ( 'NONE',  ( 5.251632441209315200, 3.261130143649369800, 0.0000000000000000000 ) ) ;
#139 = CARTESIAN_POINT ( 'NONE',  ( 8.709613268749068400, 3.261130143649370700, 0.0000000000000000000 ) ) ;
#140 = CARTESIAN_POINT ( 'NONE',  ( 6.727594096288822100, 3.261130143649369800, 0.0000000000000000000 ) ) ;
#141 =( GEOMETRIC_REPRESENTATION_CONTEXT ( 3 ) GLOBAL_UNCERTAINTY_ASSIGNED_CONTEXT ( ( #155 ) ) GLOBAL_UNIT_ASSIGNED_CONTEXT ( ( #110, #24, #147 ) ) REPRESENTATION_CONTEXT ( 'NONE', 'WORKASPACE' ) );
#142 = DIRECTION ( 'NONE',  ( 0.0000000000000000000, 0.0000000000000000000, 1.000000000000000000 ) ) ;
#143 = ORIENTED_EDGE ( 'NONE', *, *, #113, .T. ) ;
#144 = ORIENTED_EDGE ( 'NONE', *, *, #25, .T. ) ;
#145 = SURFACE_STYLE_USAGE ( .BOTH. , #163 ) ;
#146 = CARTESIAN_POINT ( 'NONE',  ( 3.269613268749068000, 3.261130143649369800, 0.0000000000000000000 ) ) ;
#147 =( NAMED_UNIT ( * ) SI_UNIT ( $, .STERADIAN. ) SOLID_ANGLE_UNIT ( ) );
#148 = CIRCLE ( 'NONE', #178, 2.219999999999998900 ) ;
#149 = EDGE_CURVE ( 'NONE', #117, #205, #68, .T. ) ;
#150 = EDGE_LOOP ( 'NONE', ( #157, #118, #108, #4, #210, #112 ) ) ;
#151 = EDGE_CURVE ( 'NONE', #96, #114, #193, .T. ) ;
#152 = SURFACE_STYLE_FILL_AREA ( #220 ) ;
#153 = ORIENTED_EDGE ( 'NONE', *, *, #151, .F. ) ;
#154 = PRODUCT_DEFINITION ( 'Î´Öª', '', #174, #71 ) ;
#155 = UNCERTAINTY_MEASURE_WITH_UNIT (LENGTH_MEASURE( 1.000000000000000100E-005 ), #110, 'distance_accuracy_value', 'NONE');
#156 = AXIS2_PLACEMENT_3D ( 'NONE', #208, #6, #129 ) ;
#157 = ORIENTED_EDGE ( 'NONE', *, *, #137, .T. ) ;
#158 = ORIENTED_EDGE ( 'NONE', *, *, #86, .F. ) ;
#159 = DIRECTION ( 'NONE',  ( 0.0000000000000000000, -1.000000000000000000, 0.0000000000000000000 ) ) ;
#160 =( GEOMETRIC_REPRESENTATION_CONTEXT ( 3 ) GLOBAL_UNCERTAINTY_ASSIGNED_CONTEXT ( ( #14 ) ) GLOBAL_UNIT_ASSIGNED_CONTEXT ( ( #201, #59, #20 ) ) REPRESENTATION_CONTEXT ( 'NONE', 'WORKASPACE' ) );
#161 = CIRCLE ( 'NONE', #171, 1.000000000000000400 ) ;
#162 = DIRECTION ( 'NONE',  ( -1.000000000000000000, -0.0000000000000000000, -0.0000000000000000000 ) ) ;
#163 = SURFACE_SIDE_STYLE ('',( #132 ) ) ;
#164 = CARTESIAN_POINT ( 'NONE',  ( 5.306232639267102900, 3.261130143649369800, 1.000000000000000400 ) ) ;
#165 = CARTESIAN_POINT ( 'NONE',  ( 6.727594096288822100, 3.261130143649369800, 0.0000000000000000000 ) ) ;
#166 = PRODUCT_CONTEXT ( 'NONE', #33, 'mechanical' ) ;
#167 = DIRECTION ( 'NONE',  ( -1.000000000000000000, 0.0000000000000000000, 0.0000000000000000000 ) ) ;
#168 = CARTESIAN_POINT ( 'NONE',  ( 6.727594096288822100, 3.261130143649369800, 1.000000000000001300 ) ) ;
#169 = EDGE_CURVE ( 'NONE', #205, #76, #222, .T. ) ;
#170 = CLOSED_SHELL ( 'NONE', ( #176, #212, #191, #48, #181, #28 ) ) ;
#171 = AXIS2_PLACEMENT_3D ( 'NONE', #85, #216, #105 ) ;
#172 = ORIENTED_EDGE ( 'NONE', *, *, #82, .F. ) ;
#173 = AXIS2_PLACEMENT_3D ( 'NONE', #72, #200, #63 ) ;
#174 = PRODUCT_DEFINITION_FORMATION_WITH_SPECIFIED_SOURCE ( 'ÈÎºÎ', '', #45, .NOT_KNOWN. ) ;
#175 = DIRECTION ( 'NONE',  ( 0.0000000000000000000, -1.000000000000000000, -1.224646799147353200E-016 ) ) ;
#176 = ADVANCED_FACE ( 'NONE', ( #31 ), #111, .F. ) ;
#177 = EDGE_CURVE ( 'NONE', #114, #182, #161, .T. ) ;
#178 = AXIS2_PLACEMENT_3D ( 'NONE', #66, #232, #167 ) ;
#179 = PRODUCT_RELATED_PRODUCT_CATEGORY ( 'part', '', ( #45 ) ) ;
#180 = FACE_OUTER_BOUND ( 'NONE', #150, .T. ) ;
#181 = ADVANCED_FACE ( 'NONE', ( #225 ), #64, .T. ) ;
#182 = VERTEX_POINT ( 'NONE', #188 ) ;
#183 = CARTESIAN_POINT ( 'NONE',  ( 5.306232639267102900, 3.261130143649369800, -1.000000000000000400 ) ) ;
#184 = DIRECTION ( 'NONE',  ( -1.000000000000000000, -0.0000000000000000000, -0.0000000000000000000 ) ) ;
#185 = DIRECTION ( 'NONE',  ( 0.0000000000000000000, 0.0000000000000000000, 1.000000000000000000 ) ) ;
#186 = AXIS2_PLACEMENT_3D ( 'NONE', #139, #122, #159 ) ;
#187 = APPLICATION_CONTEXT ( 'automotive_design' ) ;
#188 = CARTESIAN_POINT ( 'NONE',  ( 5.251632441209315200, 3.261130143649369800, -1.000000000000000400 ) ) ;
#189 = EDGE_LOOP ( 'NONE', ( #84, #217, #223, #127, #18, #134 ) ) ;
#190 = EDGE_LOOP ( 'NONE', ( #153, #77, #227, #144 ) ) ;
#191 = ADVANCED_FACE ( 'NONE', ( #37 ), #135, .F. ) ;
#192 = AXIS2_PLACEMENT_3D ( 'NONE', #1, #19, #52 ) ;
#193 = CIRCLE ( 'NONE', #40, 2.220000000000001100 ) ;
#194 = STYLED_ITEM ( 'NONE', ( #9 ), #133 ) ;
#195 = APPLICATION_PROTOCOL_DEFINITION ( 'draft international standard', 'automotive_design', 1998, #33 ) ;
#196 = ORIENTED_EDGE ( 'NONE', *, *, #137, .F. ) ;
#197 = CARTESIAN_POINT ( 'NONE',  ( 6.727594096288822100, 4.261130143649370300, 1.224646799147353000E-016 ) ) ;
#198 = CARTESIAN_POINT ( 'NONE',  ( 3.269613268749068000, 3.261130143649369800, 0.0000000000000000000 ) ) ;
#199 = CARTESIAN_POINT ( 'NONE',  ( 5.251632441209315200, 3.261130143649369800, 0.0000000000000000000 ) ) ;
#200 = DIRECTION ( 'NONE',  ( -1.000000000000000000, -0.0000000000000000000, -0.0000000000000000000 ) ) ;
#201 =( LENGTH_UNIT ( ) NAMED_UNIT ( * ) SI_UNIT ( .MILLI., .METRE. ) );
#202 = AXIS2_PLACEMENT_3D ( 'NONE', #165, #69, #142 ) ;
#203 = MANIFOLD_SOLID_BREP ( 'Ðý×ª1', #170 ) ;
#204 = AXIS2_PLACEMENT_3D ( 'NONE', #215, #17, #58 ) ;
#205 = VERTEX_POINT ( 'NONE', #168 ) ;
#206 = VECTOR ( 'NONE', #39, 1000.000000000000000 ) ;
#207 = ORIENTED_EDGE ( 'NONE', *, *, #149, .F. ) ;
#208 = CARTESIAN_POINT ( 'NONE',  ( 6.727594096288822100, 3.261130143649369800, 0.0000000000000000000 ) ) ;
#209 = CARTESIAN_POINT ( 'NONE',  ( 5.251632441209315200, 3.261130143649369800, 1.000000000000000400 ) ) ;
#210 = ORIENTED_EDGE ( 'NONE', *, *, #169, .F. ) ;
#211 = CARTESIAN_POINT ( 'NONE',  ( 8.709613268749068400, 3.261130143649370700, 0.0000000000000000000 ) ) ;
#212 = ADVANCED_FACE ( 'NONE', ( #180 ), #55, .T. ) ;
#213 = AXIS2_PLACEMENT_3D ( 'NONE', #199, #3, #80 ) ;
#214 = ORIENTED_EDGE ( 'NONE', *, *, #97, .F. ) ;
#215 = CARTESIAN_POINT ( 'NONE',  ( 5.306232639267102900, 3.261130143649369800, 0.0000000000000000000 ) ) ;
#216 = DIRECTION ( 'NONE',  ( -1.000000000000000000, -0.0000000000000000000, -0.0000000000000000000 ) ) ;
#217 = ORIENTED_EDGE ( 'NONE', *, *, #97, .T. ) ;
#218 = DIRECTION ( 'NONE',  ( 0.0000000000000000000, 0.0000000000000000000, 1.000000000000000000 ) ) ;
#219 = AXIS2_PLACEMENT_3D ( 'NONE', #211, #49, #175 ) ;
#220 = FILL_AREA_STYLE ('',( #21 ) ) ;
#221 = DIRECTION ( 'NONE',  ( 0.0000000000000000000, -1.000000000000000000, 0.0000000000000000000 ) ) ;
#222 = LINE ( 'NONE', #164, #206 ) ;
#223 = ORIENTED_EDGE ( 'NONE', *, *, #149, .T. ) ;
#224 = PRESENTATION_LAYER_ASSIGNMENT (  '', '', ( #194 ) ) ;
#225 = FACE_OUTER_BOUND ( 'NONE', #189, .T. ) ;
#226 = AXIS2_PLACEMENT_3D ( 'NONE', #146, #34, #38 ) ;
#227 = ORIENTED_EDGE ( 'NONE', *, *, #128, .T. ) ;
#228 = AXIS2_PLACEMENT_3D ( 'NONE', #109, #88, #221 ) ;
#229 = CIRCLE ( 'NONE', #8, 1.000000000000000400 ) ;
#230 = CARTESIAN_POINT ( 'NONE',  ( 6.727594096288822100, 3.261130143649369800, -1.000000000000001300 ) ) ;
#231 = MECHANICAL_DESIGN_GEOMETRIC_PRESENTATION_REPRESENTATION (  '', ( #194 ), #12 ) ;
#232 = DIRECTION ( 'NONE',  ( 0.0000000000000000000, 0.0000000000000000000, -1.000000000000000000 ) ) ;
ENDSEC;
END-ISO-10303-21;
