ISO-10303-21;
HEADER;
FILE_DESCRIPTION (( 'STEP AP214' ),
    '1' );
FILE_NAME ('130005.STEP',
    '2019-06-28T06:00:10',
    ( '' ),
    ( '' ),
    'SwSTEP 2.0',
    'SolidWorks 2016',
    '' );
FILE_SCHEMA (( 'AUTOMOTIVE_DESIGN' ));
ENDSEC;

DATA;
#1 = EDGE_CURVE ( 'NONE', #169, #9, #174, .T. ) ;
#2 = DIRECTION ( 'NONE',  ( 0.0000000000000000000, 0.0000000000000000000, 1.000000000000000000 ) ) ;
#3 = ORIENTED_EDGE ( 'NONE', *, *, #57, .F. ) ;
#4 = AXIS2_PLACEMENT_3D ( 'NONE', #230, #98, #96 ) ;
#5 = CIRCLE ( 'NONE', #136, 4.299999999999999800 ) ;
#6 = VERTEX_POINT ( 'NONE', #49 ) ;
#7 = ADVANCED_FACE ( 'NONE', ( #189 ), #153, .F. ) ;
#8 = CARTESIAN_POINT ( 'NONE',  ( 16.81489500521976100, 6.522260287298739600, 0.0000000000000000000 ) ) ;
#9 = VERTEX_POINT ( 'NONE', #87 ) ;
#10 = CARTESIAN_POINT ( 'NONE',  ( 10.61246527853420600, 6.522260287298739600, 2.000000000000000900 ) ) ;
#11 = EDGE_CURVE ( 'NONE', #176, #22, #38, .T. ) ;
#12 = ORIENTED_EDGE ( 'NONE', *, *, #17, .F. ) ;
#13 = AXIS2_PLACEMENT_3D ( 'NONE', #120, #2, #40 ) ;
#14 = DIRECTION ( 'NONE',  ( -1.000000000000000000, -0.0000000000000000000, -0.0000000000000000000 ) ) ;
#15 = CARTESIAN_POINT ( 'NONE',  ( 7.214895005219762700, 6.522260287298739600, 0.0000000000000000000 ) ) ;
#16 = CARTESIAN_POINT ( 'NONE',  ( 12.51489500521976200, 6.522260287298739600, 0.0000000000000000000 ) ) ;
#17 = EDGE_CURVE ( 'NONE', #6, #169, #89, .T. ) ;
#18 = ORIENTED_EDGE ( 'NONE', *, *, #117, .T. ) ;
#19 = DIRECTION ( 'NONE',  ( 0.0000000000000000000, 0.0000000000000000000, 1.000000000000000000 ) ) ;
#20 = PRODUCT_DEFINITION_FORMATION_WITH_SPECIFIED_SOURCE ( 'ÈÎºÎ', '', #125, .NOT_KNOWN. ) ;
#21 = PRODUCT_RELATED_PRODUCT_CATEGORY ( 'part', '', ( #125 ) ) ;
#22 = VERTEX_POINT ( 'NONE', #64 ) ;
#23 = FACE_OUTER_BOUND ( 'NONE', #184, .T. ) ;
#24 = AXIS2_PLACEMENT_3D ( 'NONE', #168, #19, #170 ) ;
#25 = EDGE_CURVE ( 'NONE', #208, #169, #52, .T. ) ;
#26 = ADVANCED_FACE ( 'NONE', ( #192 ), #44, .T. ) ;
#27 = ADVANCED_FACE ( 'NONE', ( #171 ), #143, .T. ) ;
#28 = DIRECTION ( 'NONE',  ( 0.0000000000000000000, 0.0000000000000000000, 1.000000000000000000 ) ) ;
#29 = VERTEX_POINT ( 'NONE', #133 ) ;
#30 = DIRECTION ( 'NONE',  ( -1.000000000000000000, -0.0000000000000000000, -0.0000000000000000000 ) ) ;
#31 = ORIENTED_EDGE ( 'NONE', *, *, #97, .F. ) ;
#32 = DIRECTION ( 'NONE',  ( -1.000000000000000000, -0.0000000000000000000, -0.0000000000000000000 ) ) ;
#33 = CARTESIAN_POINT ( 'NONE',  ( 11.02146826735461900, 6.522260287298739600, 0.0000000000000000000 ) ) ;
#34 =( NAMED_UNIT ( * ) SI_UNIT ( $, .STERADIAN. ) SOLID_ANGLE_UNIT ( ) );
#35 = FILL_AREA_STYLE ('',( #224 ) ) ;
#36 = ORIENTED_EDGE ( 'NONE', *, *, #68, .F. ) ;
#37 = CIRCLE ( 'NONE', #79, 2.000000000000000900 ) ;
#38 = CIRCLE ( 'NONE', #182, 2.000000000000000900 ) ;
#39 = SURFACE_SIDE_STYLE ('',( #196 ) ) ;
#40 = DIRECTION ( 'NONE',  ( 1.000000000000000000, 0.0000000000000000000, 0.0000000000000000000 ) ) ;
#41 = CLOSED_SHELL ( 'NONE', ( #27, #173, #194, #65, #7, #26 ) ) ;
#42 = ADVANCED_BREP_SHAPE_REPRESENTATION ( '130005', ( #154, #13 ), #225 ) ;
#43 = PRESENTATION_STYLE_ASSIGNMENT (( #102 ) ) ;
#44 = CYLINDRICAL_SURFACE ( 'NONE', #191, 2.000000000000000900 ) ;
#45 = EDGE_CURVE ( 'NONE', #176, #9, #141, .T. ) ;
#46 = DIRECTION ( 'NONE',  ( 0.0000000000000000000, -1.000000000000000000, 0.0000000000000000000 ) ) ;
#47 = DIRECTION ( 'NONE',  ( 0.0000000000000000000, 0.0000000000000000000, 1.000000000000000000 ) ) ;
#48 = ORIENTED_EDGE ( 'NONE', *, *, #117, .F. ) ;
#49 = CARTESIAN_POINT ( 'NONE',  ( 11.02146826735461900, 6.522260287298739600, 2.000000000000000900 ) ) ;
#50 = AXIS2_PLACEMENT_3D ( 'NONE', #71, #197, #93 ) ;
#51 = CARTESIAN_POINT ( 'NONE',  ( 13.00832174308490600, 6.522260287298739600, 0.0000000000000000000 ) ) ;
#52 = CIRCLE ( 'NONE', #145, 4.299999999999999800 ) ;
#53 = DIRECTION ( 'NONE',  ( -1.000000000000000000, -0.0000000000000000000, -0.0000000000000000000 ) ) ;
#54 = CARTESIAN_POINT ( 'NONE',  ( 16.81489500521976100, 6.522260287298739600, 0.0000000000000000000 ) ) ;
#55 = ORIENTED_EDGE ( 'NONE', *, *, #1, .F. ) ;
#56 = DIRECTION ( 'NONE',  ( 0.0000000000000000000, -1.224646799147353200E-016, 1.000000000000000000 ) ) ;
#57 = EDGE_CURVE ( 'NONE', #22, #137, #148, .T. ) ;
#58 =( LENGTH_UNIT ( ) NAMED_UNIT ( * ) SI_UNIT ( .MILLI., .METRE. ) );
#59 = AXIS2_PLACEMENT_3D ( 'NONE', #51, #32, #163 ) ;
#60 = ORIENTED_EDGE ( 'NONE', *, *, #25, .T. ) ;
#61 =( NAMED_UNIT ( * ) SI_UNIT ( $, .STERADIAN. ) SOLID_ANGLE_UNIT ( ) );
#62 = AXIS2_PLACEMENT_3D ( 'NONE', #33, #14, #177 ) ;
#63 =( GEOMETRIC_REPRESENTATION_CONTEXT ( 3 ) GLOBAL_UNCERTAINTY_ASSIGNED_CONTEXT ( ( #90 ) ) GLOBAL_UNIT_ASSIGNED_CONTEXT ( ( #58, #188, #115 ) ) REPRESENTATION_CONTEXT ( 'NONE', 'WORKASPACE' ) );
#64 = CARTESIAN_POINT ( 'NONE',  ( 13.00832174308490600, 4.522260287298738700, 0.0000000000000000000 ) ) ;
#65 = ADVANCED_FACE ( 'NONE', ( #94 ), #187, .F. ) ;
#66 = ORIENTED_EDGE ( 'NONE', *, *, #82, .F. ) ;
#67 = DIRECTION ( 'NONE',  ( -1.000000000000000000, -0.0000000000000000000, -0.0000000000000000000 ) ) ;
#68 = EDGE_CURVE ( 'NONE', #101, #6, #134, .T. ) ;
#69 = CARTESIAN_POINT ( 'NONE',  ( 11.02146826735461900, 6.522260287298739600, 0.0000000000000000000 ) ) ;
#70 = CARTESIAN_POINT ( 'NONE',  ( 13.00832174308490600, 6.522260287298739600, 0.0000000000000000000 ) ) ;
#71 = CARTESIAN_POINT ( 'NONE',  ( 7.214895005219762700, 6.522260287298739600, 0.0000000000000000000 ) ) ;
#72 = DIRECTION ( 'NONE',  ( 0.0000000000000000000, 0.0000000000000000000, 1.000000000000000000 ) ) ;
#73 = ORIENTED_EDGE ( 'NONE', *, *, #82, .T. ) ;
#74 = PRODUCT_DEFINITION ( 'Î´Öª', '', #20, #128 ) ;
#75 =( LENGTH_UNIT ( ) NAMED_UNIT ( * ) SI_UNIT ( .MILLI., .METRE. ) );
#76 = PRODUCT_DEFINITION_SHAPE ( 'NONE', 'NONE',  #74 ) ;
#77 = SPHERICAL_SURFACE ( 'NONE', #24, 4.299999999999999800 ) ;
#78 = ORIENTED_EDGE ( 'NONE', *, *, #121, .F. ) ;
#79 = AXIS2_PLACEMENT_3D ( 'NONE', #70, #91, #108 ) ;
#80 = STYLED_ITEM ( 'NONE', ( #43 ), #154 ) ;
#81 = VECTOR ( 'NONE', #112, 1000.000000000000000 ) ;
#82 = EDGE_CURVE ( 'NONE', #9, #29, #116, .T. ) ;
#83 = VERTEX_POINT ( 'NONE', #210 ) ;
#84 = EDGE_CURVE ( 'NONE', #29, #6, #206, .T. ) ;
#85 = ORIENTED_EDGE ( 'NONE', *, *, #45, .T. ) ;
#86 = COLOUR_RGB ( '',1.000000000000000000, 1.000000000000000000, 1.000000000000000000 ) ;
#87 = CARTESIAN_POINT ( 'NONE',  ( 11.02146826735461900, 6.522260287298739600, -2.000000000000000900 ) ) ;
#88 = DIRECTION ( 'NONE',  ( 0.0000000000000000000, 0.0000000000000000000, 1.000000000000000000 ) ) ;
#89 = CIRCLE ( 'NONE', #138, 2.000000000000000900 ) ;
#90 = UNCERTAINTY_MEASURE_WITH_UNIT (LENGTH_MEASURE( 1.000000000000000100E-005 ), #58, 'distance_accuracy_value', 'NONE');
#91 = DIRECTION ( 'NONE',  ( -1.000000000000000000, -0.0000000000000000000, -0.0000000000000000000 ) ) ;
#92 = AXIS2_PLACEMENT_3D ( 'NONE', #69, #165, #72 ) ;
#93 = DIRECTION ( 'NONE',  ( 0.0000000000000000000, 1.000000000000000000, 0.0000000000000000000 ) ) ;
#94 = FACE_OUTER_BOUND ( 'NONE', #232, .T. ) ;
#95 = CARTESIAN_POINT ( 'NONE',  ( 13.00832174308490600, 6.522260287298739600, 0.0000000000000000000 ) ) ;
#96 = DIRECTION ( 'NONE',  ( 0.0000000000000000000, 1.000000000000000000, 0.0000000000000000000 ) ) ;
#97 = EDGE_CURVE ( 'NONE', #22, #101, #186, .T. ) ;
#98 = DIRECTION ( 'NONE',  ( 0.0000000000000000000, 0.0000000000000000000, -1.000000000000000000 ) ) ;
#99 = UNCERTAINTY_MEASURE_WITH_UNIT (LENGTH_MEASURE( 1.000000000000000100E-005 ), #214, 'distance_accuracy_value', 'NONE');
#100 = CIRCLE ( 'NONE', #213, 4.300000000000000700 ) ;
#101 = VERTEX_POINT ( 'NONE', #160 ) ;
#102 = SURFACE_STYLE_USAGE ( .BOTH. , #39 ) ;
#103 = ORIENTED_EDGE ( 'NONE', *, *, #97, .T. ) ;
#104 = ORIENTED_EDGE ( 'NONE', *, *, #121, .T. ) ;
#105 = DIRECTION ( 'NONE',  ( -1.000000000000000000, -0.0000000000000000000, -0.0000000000000000000 ) ) ;
#106 = ORIENTED_EDGE ( 'NONE', *, *, #84, .T. ) ;
#107 = AXIS2_PLACEMENT_3D ( 'NONE', #8, #28, #46 ) ;
#108 = DIRECTION ( 'NONE',  ( 0.0000000000000000000, 0.0000000000000000000, 1.000000000000000000 ) ) ;
#109 = DIRECTION ( 'NONE',  ( 0.0000000000000000000, 0.0000000000000000000, 1.000000000000000000 ) ) ;
#110 = DIRECTION ( 'NONE',  ( 0.0000000000000000000, 0.0000000000000000000, 1.000000000000000000 ) ) ;
#111 = AXIS2_PLACEMENT_3D ( 'NONE', #126, #127, #175 ) ;
#112 = DIRECTION ( 'NONE',  ( -1.000000000000000000, -0.0000000000000000000, -0.0000000000000000000 ) ) ;
#113 = ORIENTED_EDGE ( 'NONE', *, *, #57, .T. ) ;
#114 = CARTESIAN_POINT ( 'NONE',  ( 11.02146826735461900, 8.522260287298740500, 0.0000000000000000000 ) ) ;
#115 =( NAMED_UNIT ( * ) SI_UNIT ( $, .STERADIAN. ) SOLID_ANGLE_UNIT ( ) );
#116 = CIRCLE ( 'NONE', #92, 2.000000000000000900 ) ;
#117 = EDGE_CURVE ( 'NONE', #83, #176, #37, .T. ) ;
#118 = SURFACE_STYLE_FILL_AREA ( #201 ) ;
#119 = ORIENTED_EDGE ( 'NONE', *, *, #17, .T. ) ;
#120 = CARTESIAN_POINT ( 'NONE',  ( 0.0000000000000000000, 0.0000000000000000000, 0.0000000000000000000 ) ) ;
#121 = EDGE_CURVE ( 'NONE', #101, #83, #129, .T. ) ;
#122 = UNCERTAINTY_MEASURE_WITH_UNIT (LENGTH_MEASURE( 1.000000000000000100E-005 ), #75, 'distance_accuracy_value', 'NONE');
#123 = CARTESIAN_POINT ( 'NONE',  ( 13.00832174308490600, 6.522260287298739600, 0.0000000000000000000 ) ) ;
#124 = STYLED_ITEM ( 'NONE', ( #159 ), #42 ) ;
#125 = PRODUCT ( '130005', '130005', '', ( #216 ) ) ;
#126 = CARTESIAN_POINT ( 'NONE',  ( 11.02146826735461900, 6.522260287298739600, 0.0000000000000000000 ) ) ;
#127 = DIRECTION ( 'NONE',  ( -1.000000000000000000, -0.0000000000000000000, -0.0000000000000000000 ) ) ;
#128 = PRODUCT_DEFINITION_CONTEXT ( 'detailed design', #151, 'design' ) ;
#129 = CIRCLE ( 'NONE', #59, 2.000000000000000900 ) ;
#130 = EDGE_CURVE ( 'NONE', #208, #29, #100, .T. ) ;
#131 = CARTESIAN_POINT ( 'NONE',  ( 10.61246527853420600, 6.522260287298739600, 0.0000000000000000000 ) ) ;
#132 = MECHANICAL_DESIGN_GEOMETRIC_PRESENTATION_REPRESENTATION (  '', ( #124 ), #162 ) ;
#133 = CARTESIAN_POINT ( 'NONE',  ( 11.02146826735461900, 4.522260287298738700, -2.449293598294706900E-016 ) ) ;
#134 = LINE ( 'NONE', #10, #81 ) ;
#135 =( NAMED_UNIT ( * ) PLANE_ANGLE_UNIT ( ) SI_UNIT ( $, .RADIAN. ) );
#136 = AXIS2_PLACEMENT_3D ( 'NONE', #54, #56, #200 ) ;
#137 = VERTEX_POINT ( 'NONE', #16 ) ;
#138 = AXIS2_PLACEMENT_3D ( 'NONE', #207, #105, #47 ) ;
#139 = EDGE_CURVE ( 'NONE', #83, #137, #5, .T. ) ;
#140 = APPLICATION_CONTEXT ( 'automotive_design' ) ;
#141 = LINE ( 'NONE', #161, #222 ) ;
#142 = EDGE_LOOP ( 'NONE', ( #18, #85, #55, #12, #36, #104 ) ) ;
#143 = CYLINDRICAL_SURFACE ( 'NONE', #202, 2.000000000000000900 ) ;
#144 = PRESENTATION_LAYER_ASSIGNMENT (  '', '', ( #124 ) ) ;
#145 = AXIS2_PLACEMENT_3D ( 'NONE', #212, #179, #146 ) ;
#146 = DIRECTION ( 'NONE',  ( 1.000000000000000000, 0.0000000000000000000, 0.0000000000000000000 ) ) ;
#147 = COLOUR_RGB ( '',1.000000000000000000, 1.000000000000000000, 1.000000000000000000 ) ;
#148 = CIRCLE ( 'NONE', #157, 4.299999999999999800 ) ;
#149 = DIRECTION ( 'NONE',  ( 0.0000000000000000000, 1.224646799147353200E-016, -1.000000000000000000 ) ) ;
#150 = DIRECTION ( 'NONE',  ( 0.0000000000000000000, 0.0000000000000000000, -1.000000000000000000 ) ) ;
#151 = APPLICATION_CONTEXT ( 'automotive_design' ) ;
#152 = ORIENTED_EDGE ( 'NONE', *, *, #130, .T. ) ;
#153 = SPHERICAL_SURFACE ( 'NONE', #107, 4.299999999999999800 ) ;
#154 = MANIFOLD_SOLID_BREP ( 'Ðý×ª1', #41 ) ;
#155 = APPLICATION_PROTOCOL_DEFINITION ( 'draft international standard', 'automotive_design', 1998, #151 ) ;
#156 = ORIENTED_EDGE ( 'NONE', *, *, #45, .F. ) ;
#157 = AXIS2_PLACEMENT_3D ( 'NONE', #211, #150, #220 ) ;
#158 = ORIENTED_EDGE ( 'NONE', *, *, #68, .T. ) ;
#159 = PRESENTATION_STYLE_ASSIGNMENT (( #205 ) ) ;
#160 = CARTESIAN_POINT ( 'NONE',  ( 13.00832174308490600, 6.522260287298739600, 2.000000000000000900 ) ) ;
#161 = CARTESIAN_POINT ( 'NONE',  ( 10.61246527853420600, 6.522260287298739600, -2.000000000000000900 ) ) ;
#162 =( GEOMETRIC_REPRESENTATION_CONTEXT ( 3 ) GLOBAL_UNCERTAINTY_ASSIGNED_CONTEXT ( ( #122 ) ) GLOBAL_UNIT_ASSIGNED_CONTEXT ( ( #75, #135, #34 ) ) REPRESENTATION_CONTEXT ( 'NONE', 'WORKASPACE' ) );
#163 = DIRECTION ( 'NONE',  ( 0.0000000000000000000, 0.0000000000000000000, 1.000000000000000000 ) ) ;
#164 = ORIENTED_EDGE ( 'NONE', *, *, #1, .T. ) ;
#165 = DIRECTION ( 'NONE',  ( -1.000000000000000000, -0.0000000000000000000, -0.0000000000000000000 ) ) ;
#166 = SURFACE_SIDE_STYLE ('',( #118 ) ) ;
#167 = ORIENTED_EDGE ( 'NONE', *, *, #139, .T. ) ;
#168 = CARTESIAN_POINT ( 'NONE',  ( 16.81489500521976100, 6.522260287298739600, 0.0000000000000000000 ) ) ;
#169 = VERTEX_POINT ( 'NONE', #114 ) ;
#170 = DIRECTION ( 'NONE',  ( 0.0000000000000000000, -1.000000000000000000, 0.0000000000000000000 ) ) ;
#171 = FACE_OUTER_BOUND ( 'NONE', #142, .T. ) ;
#172 = ORIENTED_EDGE ( 'NONE', *, *, #130, .F. ) ;
#173 = ADVANCED_FACE ( 'NONE', ( #221 ), #77, .F. ) ;
#174 = CIRCLE ( 'NONE', #111, 2.000000000000000900 ) ;
#175 = DIRECTION ( 'NONE',  ( 0.0000000000000000000, 0.0000000000000000000, 1.000000000000000000 ) ) ;
#176 = VERTEX_POINT ( 'NONE', #198 ) ;
#177 = DIRECTION ( 'NONE',  ( 0.0000000000000000000, 0.0000000000000000000, 1.000000000000000000 ) ) ;
#178 = DIRECTION ( 'NONE',  ( 0.0000000000000000000, 0.0000000000000000000, 1.000000000000000000 ) ) ;
#179 = DIRECTION ( 'NONE',  ( 0.0000000000000000000, 0.0000000000000000000, 1.000000000000000000 ) ) ;
#180 = EDGE_LOOP ( 'NONE', ( #156, #193, #103, #158, #217, #66 ) ) ;
#181 = CARTESIAN_POINT ( 'NONE',  ( 10.61246527853420600, 6.522260287298739600, 0.0000000000000000000 ) ) ;
#182 = AXIS2_PLACEMENT_3D ( 'NONE', #123, #67, #88 ) ;
#183 =( NAMED_UNIT ( * ) PLANE_ANGLE_UNIT ( ) SI_UNIT ( $, .RADIAN. ) );
#184 = EDGE_LOOP ( 'NONE', ( #199, #152, #106, #119 ) ) ;
#185 = DIRECTION ( 'NONE',  ( 0.0000000000000000000, 1.000000000000000000, 1.224646799147353000E-016 ) ) ;
#186 = CIRCLE ( 'NONE', #203, 2.000000000000000900 ) ;
#187 = SPHERICAL_SURFACE ( 'NONE', #50, 4.299999999999999800 ) ;
#188 =( NAMED_UNIT ( * ) PLANE_ANGLE_UNIT ( ) SI_UNIT ( $, .RADIAN. ) );
#189 = FACE_OUTER_BOUND ( 'NONE', #190, .T. ) ;
#190 = EDGE_LOOP ( 'NONE', ( #215, #78, #31, #113 ) ) ;
#191 = AXIS2_PLACEMENT_3D ( 'NONE', #131, #30, #178 ) ;
#192 = FACE_OUTER_BOUND ( 'NONE', #180, .T. ) ;
#193 = ORIENTED_EDGE ( 'NONE', *, *, #11, .T. ) ;
#194 = ADVANCED_FACE ( 'NONE', ( #23 ), #209, .F. ) ;
#195 = DIRECTION ( 'NONE',  ( -1.000000000000000000, -0.0000000000000000000, -0.0000000000000000000 ) ) ;
#196 = SURFACE_STYLE_FILL_AREA ( #35 ) ;
#197 = DIRECTION ( 'NONE',  ( 0.0000000000000000000, 0.0000000000000000000, -1.000000000000000000 ) ) ;
#198 = CARTESIAN_POINT ( 'NONE',  ( 13.00832174308490600, 6.522260287298739600, -2.000000000000000900 ) ) ;
#199 = ORIENTED_EDGE ( 'NONE', *, *, #25, .F. ) ;
#200 = DIRECTION ( 'NONE',  ( 0.0000000000000000000, -1.000000000000000000, -1.224646799147353200E-016 ) ) ;
#201 = FILL_AREA_STYLE ('',( #227 ) ) ;
#202 = AXIS2_PLACEMENT_3D ( 'NONE', #181, #53, #109 ) ;
#203 = AXIS2_PLACEMENT_3D ( 'NONE', #95, #195, #110 ) ;
#204 = CARTESIAN_POINT ( 'NONE',  ( 11.51489500521976300, 6.522260287298739600, 0.0000000000000000000 ) ) ;
#205 = SURFACE_STYLE_USAGE ( .BOTH. , #166 ) ;
#206 = CIRCLE ( 'NONE', #62, 2.000000000000000900 ) ;
#207 = CARTESIAN_POINT ( 'NONE',  ( 11.02146826735461900, 6.522260287298739600, 0.0000000000000000000 ) ) ;
#208 = VERTEX_POINT ( 'NONE', #204 ) ;
#209 = SPHERICAL_SURFACE ( 'NONE', #4, 4.299999999999999800 ) ;
#210 = CARTESIAN_POINT ( 'NONE',  ( 13.00832174308490600, 8.522260287298740500, 2.449293598294706900E-016 ) ) ;
#211 = CARTESIAN_POINT ( 'NONE',  ( 16.81489500521976100, 6.522260287298739600, 0.0000000000000000000 ) ) ;
#212 = CARTESIAN_POINT ( 'NONE',  ( 7.214895005219762700, 6.522260287298739600, 0.0000000000000000000 ) ) ;
#213 = AXIS2_PLACEMENT_3D ( 'NONE', #15, #149, #185 ) ;
#214 =( LENGTH_UNIT ( ) NAMED_UNIT ( * ) SI_UNIT ( .MILLI., .METRE. ) );
#215 = ORIENTED_EDGE ( 'NONE', *, *, #139, .F. ) ;
#216 = PRODUCT_CONTEXT ( 'NONE', #140, 'mechanical' ) ;
#217 = ORIENTED_EDGE ( 'NONE', *, *, #84, .F. ) ;
#218 = PRESENTATION_LAYER_ASSIGNMENT (  '', '', ( #80 ) ) ;
#219 = ORIENTED_EDGE ( 'NONE', *, *, #11, .F. ) ;
#220 = DIRECTION ( 'NONE',  ( -1.000000000000000000, 0.0000000000000000000, 0.0000000000000000000 ) ) ;
#221 = FACE_OUTER_BOUND ( 'NONE', #228, .T. ) ;
#222 = VECTOR ( 'NONE', #226, 1000.000000000000000 ) ;
#223 = SHAPE_DEFINITION_REPRESENTATION ( #76, #42 ) ;
#224 = FILL_AREA_STYLE_COLOUR ( '', #147 ) ;
#225 =( GEOMETRIC_REPRESENTATION_CONTEXT ( 3 ) GLOBAL_UNCERTAINTY_ASSIGNED_CONTEXT ( ( #99 ) ) GLOBAL_UNIT_ASSIGNED_CONTEXT ( ( #214, #183, #61 ) ) REPRESENTATION_CONTEXT ( 'NONE', 'WORKASPACE' ) );
#226 = DIRECTION ( 'NONE',  ( -1.000000000000000000, -0.0000000000000000000, -0.0000000000000000000 ) ) ;
#227 = FILL_AREA_STYLE_COLOUR ( '', #86 ) ;
#228 = EDGE_LOOP ( 'NONE', ( #48, #167, #3, #219 ) ) ;
#229 = APPLICATION_PROTOCOL_DEFINITION ( 'draft international standard', 'automotive_design', 1998, #140 ) ;
#230 = CARTESIAN_POINT ( 'NONE',  ( 7.214895005219762700, 6.522260287298739600, 0.0000000000000000000 ) ) ;
#231 = MECHANICAL_DESIGN_GEOMETRIC_PRESENTATION_REPRESENTATION (  '', ( #80 ), #63 ) ;
#232 = EDGE_LOOP ( 'NONE', ( #172, #60, #164, #73 ) ) ;
ENDSEC;
END-ISO-10303-21;
