ISO-10303-21;
HEADER;
FILE_DESCRIPTION (( 'STEP AP214' ),
    '1' );
FILE_NAME ('130008.STEP',
    '2019-06-28T07:17:26',
    ( '' ),
    ( '' ),
    'SwSTEP 2.0',
    'SolidWorks 2016',
    '' );
FILE_SCHEMA (( 'AUTOMOTIVE_DESIGN' ));
ENDSEC;

DATA;
#1 = CIRCLE ( 'NONE', #219, 12.64000000000000600 ) ;
#2 = PRESENTATION_LAYER_ASSIGNMENT (  '', '', ( #207 ) ) ;
#3 = EDGE_LOOP ( 'NONE', ( #48, #145, #188, #200 ) ) ;
#4 = ORIENTED_EDGE ( 'NONE', *, *, #191, .T. ) ;
#5 = CARTESIAN_POINT ( 'NONE',  ( 57.69827810624625600, 26.36130143649369400, -7.654042494670953700E-016 ) ) ;
#6 = AXIS2_PLACEMENT_3D ( 'NONE', #164, #74, #166 ) ;
#7 = DIRECTION ( 'NONE',  ( 0.0000000000000000000, 0.0000000000000000000, 1.000000000000000000 ) ) ;
#8 = SURFACE_STYLE_FILL_AREA ( #228 ) ;
#9 = CYLINDRICAL_SURFACE ( 'NONE', #88, 6.249999999999998200 ) ;
#10 = CARTESIAN_POINT ( 'NONE',  ( 57.69827810624625600, 32.61130143649369700, 0.0000000000000000000 ) ) ;
#11 = CARTESIAN_POINT ( 'NONE',  ( 57.69827810624625600, 32.61130143649369700, -6.249999999999998200 ) ) ;
#12 = VERTEX_POINT ( 'NONE', #142 ) ;
#13 = DIRECTION ( 'NONE',  ( 1.000000000000000000, 0.0000000000000000000, 0.0000000000000000000 ) ) ;
#14 = MECHANICAL_DESIGN_GEOMETRIC_PRESENTATION_REPRESENTATION (  '', ( #207 ), #154 ) ;
#15 =( NAMED_UNIT ( * ) PLANE_ANGLE_UNIT ( ) SI_UNIT ( $, .RADIAN. ) );
#16 = CARTESIAN_POINT ( 'NONE',  ( 62.50492152106526300, 32.61130143649369700, 0.0000000000000000000 ) ) ;
#17 = ORIENTED_EDGE ( 'NONE', *, *, #209, .F. ) ;
#18 = VERTEX_POINT ( 'NONE', #89 ) ;
#19 = EDGE_CURVE ( 'NONE', #71, #190, #214, .T. ) ;
#20 = FACE_OUTER_BOUND ( 'NONE', #3, .T. ) ;
#21 = EDGE_CURVE ( 'NONE', #230, #196, #44, .T. ) ;
#22 = EDGE_CURVE ( 'NONE', #12, #18, #50, .T. ) ;
#23 = CARTESIAN_POINT ( 'NONE',  ( 73.49159981798467800, 32.61130143649369700, 0.0000000000000000000 ) ) ;
#24 = CARTESIAN_POINT ( 'NONE',  ( 53.06232639267102500, 32.61130143649369700, -6.249999999999998200 ) ) ;
#25 = DIRECTION ( 'NONE',  ( 0.0000000000000000000, 1.000000000000000000, 0.0000000000000000000 ) ) ;
#26 = DIRECTION ( 'NONE',  ( 0.0000000000000000000, 0.0000000000000000000, -1.000000000000000000 ) ) ;
#27 = CARTESIAN_POINT ( 'NONE',  ( 73.49159981798467800, 32.61130143649369700, 0.0000000000000000000 ) ) ;
#28 = ORIENTED_EDGE ( 'NONE', *, *, #191, .F. ) ;
#29 = CARTESIAN_POINT ( 'NONE',  ( 73.49159981798467800, 32.61130143649369700, 0.0000000000000000000 ) ) ;
#30 =( NAMED_UNIT ( * ) SI_UNIT ( $, .STERADIAN. ) SOLID_ANGLE_UNIT ( ) );
#31 = CARTESIAN_POINT ( 'NONE',  ( 57.69827810624625600, 32.61130143649369700, 6.249999999999998200 ) ) ;
#32 = APPLICATION_PROTOCOL_DEFINITION ( 'draft international standard', 'automotive_design', 1998, #231 ) ;
#33 = EDGE_LOOP ( 'NONE', ( #148, #68, #156, #61 ) ) ;
#34 = AXIS2_PLACEMENT_3D ( 'NONE', #27, #224, #201 ) ;
#35 = COLOUR_RGB ( '',1.000000000000000000, 1.000000000000000000, 1.000000000000000000 ) ;
#36 = EDGE_LOOP ( 'NONE', ( #183, #132, #63, #177 ) ) ;
#37 = CIRCLE ( 'NONE', #72, 6.249999999999998200 ) ;
#38 = CLOSED_SHELL ( 'NONE', ( #175, #106, #185, #123, #160, #64 ) ) ;
#39 = AXIS2_PLACEMENT_3D ( 'NONE', #135, #60, #13 ) ;
#40 = DIRECTION ( 'NONE',  ( 0.0000000000000000000, 0.0000000000000000000, 1.000000000000000000 ) ) ;
#41 = CARTESIAN_POINT ( 'NONE',  ( 62.50492152106526300, 32.61130143649369700, 0.0000000000000000000 ) ) ;
#42 = AXIS2_PLACEMENT_3D ( 'NONE', #226, #47, #119 ) ;
#43 = AXIS2_PLACEMENT_3D ( 'NONE', #16, #84, #121 ) ;
#44 = CIRCLE ( 'NONE', #139, 6.249999999999998200 ) ;
#45 = DIRECTION ( 'NONE',  ( 0.0000000000000000000, 0.0000000000000000000, 1.000000000000000000 ) ) ;
#46 = VERTEX_POINT ( 'NONE', #5 ) ;
#47 = DIRECTION ( 'NONE',  ( -1.000000000000000000, -0.0000000000000000000, -0.0000000000000000000 ) ) ;
#48 = ORIENTED_EDGE ( 'NONE', *, *, #67, .F. ) ;
#49 = VERTEX_POINT ( 'NONE', #11 ) ;
#50 = CIRCLE ( 'NONE', #155, 6.249999999999998200 ) ;
#51 = SPHERICAL_SURFACE ( 'NONE', #87, 12.64000000000000600 ) ;
#52 = EDGE_CURVE ( 'NONE', #98, #12, #180, .T. ) ;
#53 = FACE_OUTER_BOUND ( 'NONE', #33, .T. ) ;
#54 = CARTESIAN_POINT ( 'NONE',  ( 62.50492152106526300, 26.36130143649369700, 0.0000000000000000000 ) ) ;
#55 = DIRECTION ( 'NONE',  ( 0.0000000000000000000, 0.0000000000000000000, 1.000000000000000000 ) ) ;
#56 = EDGE_CURVE ( 'NONE', #46, #230, #90, .T. ) ;
#57 = FACE_OUTER_BOUND ( 'NONE', #100, .T. ) ;
#58 = CARTESIAN_POINT ( 'NONE',  ( 62.50492152106526300, 32.61130143649369700, 0.0000000000000000000 ) ) ;
#59 = DIRECTION ( 'NONE',  ( 1.000000000000000000, 0.0000000000000000000, 0.0000000000000000000 ) ) ;
#60 = DIRECTION ( 'NONE',  ( 0.0000000000000000000, 0.0000000000000000000, 1.000000000000000000 ) ) ;
#61 = ORIENTED_EDGE ( 'NONE', *, *, #19, .T. ) ;
#62 =( LENGTH_UNIT ( ) NAMED_UNIT ( * ) SI_UNIT ( .MILLI., .METRE. ) );
#63 = ORIENTED_EDGE ( 'NONE', *, *, #221, .T. ) ;
#64 = ADVANCED_FACE ( 'NONE', ( #147 ), #122, .F. ) ;
#65 = CIRCLE ( 'NONE', #34, 12.64000000000000600 ) ;
#66 = UNCERTAINTY_MEASURE_WITH_UNIT (LENGTH_MEASURE( 1.000000000000000100E-005 ), #62, 'distance_accuracy_value', 'NONE');
#67 = EDGE_CURVE ( 'NONE', #91, #196, #1, .T. ) ;
#68 = ORIENTED_EDGE ( 'NONE', *, *, #52, .F. ) ;
#69 = EDGE_CURVE ( 'NONE', #12, #190, #65, .T. ) ;
#70 = CYLINDRICAL_SURFACE ( 'NONE', #109, 6.249999999999998200 ) ;
#71 = VERTEX_POINT ( 'NONE', #54 ) ;
#72 = AXIS2_PLACEMENT_3D ( 'NONE', #82, #81, #133 ) ;
#73 = CARTESIAN_POINT ( 'NONE',  ( 59.35159980932684900, 32.61130143649369000, 0.0000000000000000000 ) ) ;
#74 = DIRECTION ( 'NONE',  ( 0.0000000000000000000, 0.0000000000000000000, 1.000000000000000000 ) ) ;
#75 = DIRECTION ( 'NONE',  ( -1.000000000000000000, -0.0000000000000000000, -0.0000000000000000000 ) ) ;
#76 = AXIS2_PLACEMENT_3D ( 'NONE', #104, #210, #208 ) ;
#77 = DIRECTION ( 'NONE',  ( 0.0000000000000000000, 0.0000000000000000000, 1.000000000000000000 ) ) ;
#78 = ORIENTED_EDGE ( 'NONE', *, *, #86, .T. ) ;
#79 = DIRECTION ( 'NONE',  ( 0.0000000000000000000, -1.000000000000000000, 0.0000000000000000000 ) ) ;
#80 = EDGE_CURVE ( 'NONE', #18, #49, #217, .T. ) ;
#81 = DIRECTION ( 'NONE',  ( -1.000000000000000000, -0.0000000000000000000, -0.0000000000000000000 ) ) ;
#82 = CARTESIAN_POINT ( 'NONE',  ( 57.69827810624625600, 32.61130143649369700, 0.0000000000000000000 ) ) ;
#83 =( GEOMETRIC_REPRESENTATION_CONTEXT ( 3 ) GLOBAL_UNCERTAINTY_ASSIGNED_CONTEXT ( ( #66 ) ) GLOBAL_UNIT_ASSIGNED_CONTEXT ( ( #62, #136, #182 ) ) REPRESENTATION_CONTEXT ( 'NONE', 'WORKASPACE' ) );
#84 = DIRECTION ( 'NONE',  ( -1.000000000000000000, -0.0000000000000000000, -0.0000000000000000000 ) ) ;
#85 = APPLICATION_CONTEXT ( 'automotive_design' ) ;
#86 = EDGE_CURVE ( 'NONE', #71, #98, #194, .T. ) ;
#87 = AXIS2_PLACEMENT_3D ( 'NONE', #29, #229, #79 ) ;
#88 = AXIS2_PLACEMENT_3D ( 'NONE', #149, #222, #55 ) ;
#89 = CARTESIAN_POINT ( 'NONE',  ( 62.50492152106526300, 32.61130143649369700, -6.249999999999998200 ) ) ;
#90 = CIRCLE ( 'NONE', #213, 6.249999999999998200 ) ;
#91 = VERTEX_POINT ( 'NONE', #73 ) ;
#92 = UNCERTAINTY_MEASURE_WITH_UNIT (LENGTH_MEASURE( 1.000000000000000100E-005 ), #171, 'distance_accuracy_value', 'NONE');
#93 = AXIS2_PLACEMENT_3D ( 'NONE', #23, #193, #110 ) ;
#94 = ORIENTED_EDGE ( 'NONE', *, *, #19, .F. ) ;
#95 = DIRECTION ( 'NONE',  ( -1.000000000000000000, -0.0000000000000000000, -0.0000000000000000000 ) ) ;
#96 = FILL_AREA_STYLE ('',( #199 ) ) ;
#97 = CARTESIAN_POINT ( 'NONE',  ( 53.06232639267102500, 32.61130143649369700, 0.0000000000000000000 ) ) ;
#98 = VERTEX_POINT ( 'NONE', #153 ) ;
#99 = CARTESIAN_POINT ( 'NONE',  ( 46.71159980932684200, 32.61130143649369000, 0.0000000000000000000 ) ) ;
#100 = EDGE_LOOP ( 'NONE', ( #140, #102, #94, #28 ) ) ;
#101 = EDGE_LOOP ( 'NONE', ( #127, #4, #78, #144, #116, #17 ) ) ;
#102 = ORIENTED_EDGE ( 'NONE', *, *, #69, .T. ) ;
#103 = PRODUCT ( '130008', '130008', '', ( #184 ) ) ;
#104 = CARTESIAN_POINT ( 'NONE',  ( 46.71159980932684200, 32.61130143649369000, 0.0000000000000000000 ) ) ;
#105 = VECTOR ( 'NONE', #157, 1000.000000000000000 ) ;
#106 = ADVANCED_FACE ( 'NONE', ( #192 ), #9, .T. ) ;
#107 = PRESENTATION_LAYER_ASSIGNMENT (  '', '', ( #186 ) ) ;
#108 = MANIFOLD_SOLID_BREP ( 'Ðý×ª1', #38 ) ;
#109 = AXIS2_PLACEMENT_3D ( 'NONE', #97, #114, #7 ) ;
#110 = DIRECTION ( 'NONE',  ( -1.000000000000000000, 0.0000000000000000000, 0.0000000000000000000 ) ) ;
#111 = DIRECTION ( 'NONE',  ( 0.0000000000000000000, 0.0000000000000000000, 1.000000000000000000 ) ) ;
#112 = DIRECTION ( 'NONE',  ( -1.000000000000000000, -0.0000000000000000000, -0.0000000000000000000 ) ) ;
#113 = CIRCLE ( 'NONE', #76, 12.64000000000000600 ) ;
#114 = DIRECTION ( 'NONE',  ( -1.000000000000000000, -0.0000000000000000000, -0.0000000000000000000 ) ) ;
#115 = CARTESIAN_POINT ( 'NONE',  ( 62.50492152106526300, 32.61130143649369700, 0.0000000000000000000 ) ) ;
#116 = ORIENTED_EDGE ( 'NONE', *, *, #56, .F. ) ;
#117 = APPLICATION_PROTOCOL_DEFINITION ( 'draft international standard', 'automotive_design', 1998, #85 ) ;
#118 = CARTESIAN_POINT ( 'NONE',  ( 60.85159981798467800, 32.61130143649369700, 0.0000000000000000000 ) ) ;
#119 = DIRECTION ( 'NONE',  ( 0.0000000000000000000, 0.0000000000000000000, 1.000000000000000000 ) ) ;
#120 = FACE_OUTER_BOUND ( 'NONE', #101, .T. ) ;
#121 = DIRECTION ( 'NONE',  ( 0.0000000000000000000, 0.0000000000000000000, 1.000000000000000000 ) ) ;
#122 = SPHERICAL_SURFACE ( 'NONE', #124, 12.64000000000000600 ) ;
#123 = ADVANCED_FACE ( 'NONE', ( #53 ), #137, .F. ) ;
#124 = AXIS2_PLACEMENT_3D ( 'NONE', #99, #128, #25 ) ;
#125 = COLOUR_RGB ( '',1.000000000000000000, 1.000000000000000000, 1.000000000000000000 ) ;
#126 = PRODUCT_DEFINITION ( 'Î´Öª', '', #141, #227 ) ;
#127 = ORIENTED_EDGE ( 'NONE', *, *, #80, .F. ) ;
#128 = DIRECTION ( 'NONE',  ( 0.0000000000000000000, 0.0000000000000000000, -1.000000000000000000 ) ) ;
#129 = DIRECTION ( 'NONE',  ( -1.000000000000000000, -0.0000000000000000000, -0.0000000000000000000 ) ) ;
#130 = CARTESIAN_POINT ( 'NONE',  ( 46.71159980932684200, 32.61130143649369000, 0.0000000000000000000 ) ) ;
#131 = SURFACE_STYLE_FILL_AREA ( #96 ) ;
#132 = ORIENTED_EDGE ( 'NONE', *, *, #67, .T. ) ;
#133 = DIRECTION ( 'NONE',  ( 0.0000000000000000000, 0.0000000000000000000, 1.000000000000000000 ) ) ;
#134 = CARTESIAN_POINT ( 'NONE',  ( 57.69827810624625600, 38.86130143649369700, 0.0000000000000000000 ) ) ;
#135 = CARTESIAN_POINT ( 'NONE',  ( 0.0000000000000000000, 0.0000000000000000000, 0.0000000000000000000 ) ) ;
#136 =( NAMED_UNIT ( * ) PLANE_ANGLE_UNIT ( ) SI_UNIT ( $, .RADIAN. ) );
#137 = SPHERICAL_SURFACE ( 'NONE', #6, 12.64000000000000600 ) ;
#138 = ORIENTED_EDGE ( 'NONE', *, *, #203, .F. ) ;
#139 = AXIS2_PLACEMENT_3D ( 'NONE', #216, #146, #197 ) ;
#140 = ORIENTED_EDGE ( 'NONE', *, *, #22, .F. ) ;
#141 = PRODUCT_DEFINITION_FORMATION_WITH_SPECIFIED_SOURCE ( 'ÈÎºÎ', '', #103, .NOT_KNOWN. ) ;
#142 = CARTESIAN_POINT ( 'NONE',  ( 62.50492152106526300, 38.86130143649369000, 7.654042494670953700E-016 ) ) ;
#143 = PRESENTATION_STYLE_ASSIGNMENT (( #232 ) ) ;
#144 = ORIENTED_EDGE ( 'NONE', *, *, #203, .T. ) ;
#145 = ORIENTED_EDGE ( 'NONE', *, *, #187, .T. ) ;
#146 = DIRECTION ( 'NONE',  ( -1.000000000000000000, -0.0000000000000000000, -0.0000000000000000000 ) ) ;
#147 = FACE_OUTER_BOUND ( 'NONE', #36, .T. ) ;
#148 = ORIENTED_EDGE ( 'NONE', *, *, #69, .F. ) ;
#149 = CARTESIAN_POINT ( 'NONE',  ( 53.06232639267102500, 32.61130143649369700, 0.0000000000000000000 ) ) ;
#150 = DIRECTION ( 'NONE',  ( -1.000000000000000000, -0.0000000000000000000, -0.0000000000000000000 ) ) ;
#151 = CIRCLE ( 'NONE', #43, 6.249999999999998200 ) ;
#152 = DIRECTION ( 'NONE',  ( 0.0000000000000000000, 1.000000000000000000, 0.0000000000000000000 ) ) ;
#153 = CARTESIAN_POINT ( 'NONE',  ( 62.50492152106526300, 32.61130143649369700, 6.249999999999998200 ) ) ;
#154 =( GEOMETRIC_REPRESENTATION_CONTEXT ( 3 ) GLOBAL_UNCERTAINTY_ASSIGNED_CONTEXT ( ( #215 ) ) GLOBAL_UNIT_ASSIGNED_CONTEXT ( ( #181, #202, #165 ) ) REPRESENTATION_CONTEXT ( 'NONE', 'WORKASPACE' ) );
#155 = AXIS2_PLACEMENT_3D ( 'NONE', #115, #75, #111 ) ;
#156 = ORIENTED_EDGE ( 'NONE', *, *, #86, .F. ) ;
#157 = DIRECTION ( 'NONE',  ( -1.000000000000000000, -0.0000000000000000000, -0.0000000000000000000 ) ) ;
#158 = AXIS2_PLACEMENT_3D ( 'NONE', #58, #129, #45 ) ;
#159 = ORIENTED_EDGE ( 'NONE', *, *, #221, .F. ) ;
#160 = ADVANCED_FACE ( 'NONE', ( #120 ), #70, .T. ) ;
#161 = ORIENTED_EDGE ( 'NONE', *, *, #52, .T. ) ;
#162 = LINE ( 'NONE', #169, #105 ) ;
#163 = DIRECTION ( 'NONE',  ( 0.0000000000000000000, 0.0000000000000000000, 1.000000000000000000 ) ) ;
#164 = CARTESIAN_POINT ( 'NONE',  ( 73.49159981798467800, 32.61130143649369700, 0.0000000000000000000 ) ) ;
#165 =( NAMED_UNIT ( * ) SI_UNIT ( $, .STERADIAN. ) SOLID_ANGLE_UNIT ( ) );
#166 = DIRECTION ( 'NONE',  ( 0.0000000000000000000, -1.000000000000000000, 0.0000000000000000000 ) ) ;
#167 = SHAPE_DEFINITION_REPRESENTATION ( #204, #173 ) ;
#168 = ORIENTED_EDGE ( 'NONE', *, *, #80, .T. ) ;
#169 = CARTESIAN_POINT ( 'NONE',  ( 53.06232639267102500, 32.61130143649369700, 6.249999999999998200 ) ) ;
#170 = FILL_AREA_STYLE_COLOUR ( '', #125 ) ;
#171 =( LENGTH_UNIT ( ) NAMED_UNIT ( * ) SI_UNIT ( .MILLI., .METRE. ) );
#172 = PRODUCT_RELATED_PRODUCT_CATEGORY ( 'part', '', ( #103 ) ) ;
#173 = ADVANCED_BREP_SHAPE_REPRESENTATION ( '130008', ( #108, #39 ), #212 ) ;
#174 = ORIENTED_EDGE ( 'NONE', *, *, #21, .F. ) ;
#175 = ADVANCED_FACE ( 'NONE', ( #20 ), #211, .F. ) ;
#176 = AXIS2_PLACEMENT_3D ( 'NONE', #130, #26, #152 ) ;
#177 = ORIENTED_EDGE ( 'NONE', *, *, #209, .T. ) ;
#178 = CARTESIAN_POINT ( 'NONE',  ( 46.71159980932684200, 32.61130143649369000, 0.0000000000000000000 ) ) ;
#179 = SURFACE_SIDE_STYLE ('',( #131 ) ) ;
#180 = CIRCLE ( 'NONE', #195, 6.249999999999998200 ) ;
#181 =( LENGTH_UNIT ( ) NAMED_UNIT ( * ) SI_UNIT ( .MILLI., .METRE. ) );
#182 =( NAMED_UNIT ( * ) SI_UNIT ( $, .STERADIAN. ) SOLID_ANGLE_UNIT ( ) );
#183 = ORIENTED_EDGE ( 'NONE', *, *, #187, .F. ) ;
#184 = PRODUCT_CONTEXT ( 'NONE', #85, 'mechanical' ) ;
#185 = ADVANCED_FACE ( 'NONE', ( #57 ), #51, .F. ) ;
#186 = STYLED_ITEM ( 'NONE', ( #143 ), #173 ) ;
#187 = EDGE_CURVE ( 'NONE', #91, #46, #113, .T. ) ;
#188 = ORIENTED_EDGE ( 'NONE', *, *, #56, .T. ) ;
#189 = PRESENTATION_STYLE_ASSIGNMENT (( #220 ) ) ;
#190 = VERTEX_POINT ( 'NONE', #118 ) ;
#191 = EDGE_CURVE ( 'NONE', #18, #71, #151, .T. ) ;
#192 = FACE_OUTER_BOUND ( 'NONE', #225, .T. ) ;
#193 = DIRECTION ( 'NONE',  ( 0.0000000000000000000, 0.0000000000000000000, -1.000000000000000000 ) ) ;
#194 = CIRCLE ( 'NONE', #158, 6.249999999999998200 ) ;
#195 = AXIS2_PLACEMENT_3D ( 'NONE', #41, #95, #40 ) ;
#196 = VERTEX_POINT ( 'NONE', #134 ) ;
#197 = DIRECTION ( 'NONE',  ( 0.0000000000000000000, 0.0000000000000000000, 1.000000000000000000 ) ) ;
#198 = MECHANICAL_DESIGN_GEOMETRIC_PRESENTATION_REPRESENTATION (  '', ( #186 ), #83 ) ;
#199 = FILL_AREA_STYLE_COLOUR ( '', #35 ) ;
#200 = ORIENTED_EDGE ( 'NONE', *, *, #21, .T. ) ;
#201 = DIRECTION ( 'NONE',  ( 0.0000000000000000000, -1.000000000000000000, -1.224646799147353200E-016 ) ) ;
#202 =( NAMED_UNIT ( * ) PLANE_ANGLE_UNIT ( ) SI_UNIT ( $, .RADIAN. ) );
#203 = EDGE_CURVE ( 'NONE', #98, #230, #162, .T. ) ;
#204 = PRODUCT_DEFINITION_SHAPE ( 'NONE', 'NONE',  #126 ) ;
#205 = SURFACE_SIDE_STYLE ('',( #8 ) ) ;
#206 = VECTOR ( 'NONE', #150, 1000.000000000000000 ) ;
#207 = STYLED_ITEM ( 'NONE', ( #189 ), #108 ) ;
#208 = DIRECTION ( 'NONE',  ( 0.0000000000000000000, 1.000000000000000000, 1.224646799147353200E-016 ) ) ;
#209 = EDGE_CURVE ( 'NONE', #49, #46, #37, .T. ) ;
#210 = DIRECTION ( 'NONE',  ( 0.0000000000000000000, 1.224646799147353200E-016, -1.000000000000000000 ) ) ;
#211 = SPHERICAL_SURFACE ( 'NONE', #176, 12.64000000000000600 ) ;
#212 =( GEOMETRIC_REPRESENTATION_CONTEXT ( 3 ) GLOBAL_UNCERTAINTY_ASSIGNED_CONTEXT ( ( #92 ) ) GLOBAL_UNIT_ASSIGNED_CONTEXT ( ( #171, #15, #30 ) ) REPRESENTATION_CONTEXT ( 'NONE', 'WORKASPACE' ) );
#213 = AXIS2_PLACEMENT_3D ( 'NONE', #10, #112, #77 ) ;
#214 = CIRCLE ( 'NONE', #93, 12.64000000000000600 ) ;
#215 = UNCERTAINTY_MEASURE_WITH_UNIT (LENGTH_MEASURE( 1.000000000000000100E-005 ), #181, 'distance_accuracy_value', 'NONE');
#216 = CARTESIAN_POINT ( 'NONE',  ( 57.69827810624625600, 32.61130143649369700, 0.0000000000000000000 ) ) ;
#217 = LINE ( 'NONE', #24, #206 ) ;
#218 = ORIENTED_EDGE ( 'NONE', *, *, #22, .T. ) ;
#219 = AXIS2_PLACEMENT_3D ( 'NONE', #178, #163, #59 ) ;
#220 = SURFACE_STYLE_USAGE ( .BOTH. , #179 ) ;
#221 = EDGE_CURVE ( 'NONE', #196, #49, #223, .T. ) ;
#222 = DIRECTION ( 'NONE',  ( -1.000000000000000000, -0.0000000000000000000, -0.0000000000000000000 ) ) ;
#223 = CIRCLE ( 'NONE', #42, 6.249999999999998200 ) ;
#224 = DIRECTION ( 'NONE',  ( 0.0000000000000000000, -1.224646799147353200E-016, 1.000000000000000000 ) ) ;
#225 = EDGE_LOOP ( 'NONE', ( #218, #168, #159, #174, #138, #161 ) ) ;
#226 = CARTESIAN_POINT ( 'NONE',  ( 57.69827810624625600, 32.61130143649369700, 0.0000000000000000000 ) ) ;
#227 = PRODUCT_DEFINITION_CONTEXT ( 'detailed design', #231, 'design' ) ;
#228 = FILL_AREA_STYLE ('',( #170 ) ) ;
#229 = DIRECTION ( 'NONE',  ( 0.0000000000000000000, 0.0000000000000000000, 1.000000000000000000 ) ) ;
#230 = VERTEX_POINT ( 'NONE', #31 ) ;
#231 = APPLICATION_CONTEXT ( 'automotive_design' ) ;
#232 = SURFACE_STYLE_USAGE ( .BOTH. , #205 ) ;
ENDSEC;
END-ISO-10303-21;
