ISO-10303-21;
HEADER;
FILE_DESCRIPTION (( 'STEP AP214' ),
    '1' );
FILE_NAME ('130009.STEP',
    '2019-06-28T07:29:48',
    ( '' ),
    ( '' ),
    'SwSTEP 2.0',
    'SolidWorks 2016',
    '' );
FILE_SCHEMA (( 'AUTOMOTIVE_DESIGN' ));
ENDSEC;

DATA;
#1 = CARTESIAN_POINT ( 'NONE',  ( 45.26176398975547200, 34.08904114919496200, 0.0000000000000000000 ) ) ;
#2 = ORIENTED_EDGE ( 'NONE', *, *, #166, .T. ) ;
#3 = CYLINDRICAL_SURFACE ( 'NONE', #154, 8.000000000000003600 ) ;
#4 = VERTEX_POINT ( 'NONE', #225 ) ;
#5 = UNCERTAINTY_MEASURE_WITH_UNIT (LENGTH_MEASURE( 1.000000000000000100E-005 ), #200, 'distance_accuracy_value', 'NONE');
#6 = FACE_OUTER_BOUND ( 'NONE', #189, .T. ) ;
#7 = ORIENTED_EDGE ( 'NONE', *, *, #81, .F. ) ;
#8 = CARTESIAN_POINT ( 'NONE',  ( 45.26176398975547200, 26.08904114919495900, 0.0000000000000000000 ) ) ;
#9 =( GEOMETRIC_REPRESENTATION_CONTEXT ( 3 ) GLOBAL_UNCERTAINTY_ASSIGNED_CONTEXT ( ( #224 ) ) GLOBAL_UNIT_ASSIGNED_CONTEXT ( ( #204, #229, #121 ) ) REPRESENTATION_CONTEXT ( 'NONE', 'WORKASPACE' ) );
#10 = DIRECTION ( 'NONE',  ( 0.0000000000000000000, 0.0000000000000000000, 1.000000000000000000 ) ) ;
#11 = PRODUCT ( '130009', '130009', '', ( #88 ) ) ;
#12 = VERTEX_POINT ( 'NONE', #13 ) ;
#13 = CARTESIAN_POINT ( 'NONE',  ( 48.79156399111139600, 26.08904114919495900, 0.0000000000000000000 ) ) ;
#14 = EDGE_LOOP ( 'NONE', ( #119, #18, #64, #2 ) ) ;
#15 = ADVANCED_FACE ( 'NONE', ( #161 ), #159, .F. ) ;
#16 = DIRECTION ( 'NONE',  ( 0.0000000000000000000, 1.224646799147353200E-016, -1.000000000000000000 ) ) ;
#17 = MANIFOLD_SOLID_BREP ( 'Ðý×ª1', #201 ) ;
#18 = ORIENTED_EDGE ( 'NONE', *, *, #120, .T. ) ;
#19 = AXIS2_PLACEMENT_3D ( 'NONE', #191, #157, #139 ) ;
#20 = CIRCLE ( 'NONE', #116, 8.000000000000003600 ) ;
#21 = AXIS2_PLACEMENT_3D ( 'NONE', #197, #160, #40 ) ;
#22 = DIRECTION ( 'NONE',  ( -1.000000000000000000, -0.0000000000000000000, -0.0000000000000000000 ) ) ;
#23 = DIRECTION ( 'NONE',  ( 0.0000000000000000000, 0.0000000000000000000, 1.000000000000000000 ) ) ;
#24 = DIRECTION ( 'NONE',  ( -1.000000000000000000, -0.0000000000000000000, -0.0000000000000000000 ) ) ;
#25 = DIRECTION ( 'NONE',  ( 0.0000000000000000000, 0.0000000000000000000, 1.000000000000000000 ) ) ;
#26 = DIRECTION ( 'NONE',  ( -1.000000000000000000, -0.0000000000000000000, -0.0000000000000000000 ) ) ;
#27 = CIRCLE ( 'NONE', #19, 16.78000000000000500 ) ;
#28 = FILL_AREA_STYLE ('',( #117 ) ) ;
#29 = DIRECTION ( 'NONE',  ( 0.0000000000000000000, 0.0000000000000000000, 1.000000000000000000 ) ) ;
#30 = VECTOR ( 'NONE', #106, 1000.000000000000000 ) ;
#31 = PRESENTATION_STYLE_ASSIGNMENT (( #55 ) ) ;
#32 = AXIS2_PLACEMENT_3D ( 'NONE', #151, #100, #220 ) ;
#33 = APPLICATION_CONTEXT ( 'automotive_design' ) ;
#34 = EDGE_CURVE ( 'NONE', #4, #104, #27, .T. ) ;
#35 = CARTESIAN_POINT ( 'NONE',  ( 50.82136399246731200, 34.08904114919496200, 9.797174393178829600E-016 ) ) ;
#36 = EDGE_LOOP ( 'NONE', ( #51, #91, #158, #86 ) ) ;
#37 = AXIS2_PLACEMENT_3D ( 'NONE', #208, #168, #109 ) ;
#38 = SPHERICAL_SURFACE ( 'NONE', #62, 16.78000000000000500 ) ;
#39 = APPLICATION_PROTOCOL_DEFINITION ( 'draft international standard', 'automotive_design', 1998, #143 ) ;
#40 = DIRECTION ( 'NONE',  ( 0.0000000000000000000, 0.0000000000000000000, 1.000000000000000000 ) ) ;
#41 = VERTEX_POINT ( 'NONE', #72 ) ;
#42 = SURFACE_STYLE_FILL_AREA ( #58 ) ;
#43 = VERTEX_POINT ( 'NONE', #190 ) ;
#44 = AXIS2_PLACEMENT_3D ( 'NONE', #77, #177, #23 ) ;
#45 = CIRCLE ( 'NONE', #199, 16.78000000000000500 ) ;
#46 = DIRECTION ( 'NONE',  ( 0.0000000000000000000, 0.0000000000000000000, 1.000000000000000000 ) ) ;
#47 = DIRECTION ( 'NONE',  ( 0.0000000000000000000, 1.000000000000000000, 0.0000000000000000000 ) ) ;
#48 = EDGE_CURVE ( 'NONE', #222, #149, #134, .T. ) ;
#49 = SHAPE_DEFINITION_REPRESENTATION ( #213, #78 ) ;
#50 = CARTESIAN_POINT ( 'NONE',  ( 30.51156399111138700, 26.08904114919495900, 0.0000000000000000000 ) ) ;
#51 = ORIENTED_EDGE ( 'NONE', *, *, #120, .F. ) ;
#52 = AXIS2_PLACEMENT_3D ( 'NONE', #112, #26, #46 ) ;
#53 = ORIENTED_EDGE ( 'NONE', *, *, #166, .F. ) ;
#54 = DIRECTION ( 'NONE',  ( 0.0000000000000000000, 0.0000000000000000000, -1.000000000000000000 ) ) ;
#55 = SURFACE_STYLE_USAGE ( .BOTH. , #227 ) ;
#56 = CIRCLE ( 'NONE', #21, 8.000000000000003600 ) ;
#57 = CARTESIAN_POINT ( 'NONE',  ( 50.82136399246731200, 26.08904114919495900, 0.0000000000000000000 ) ) ;
#58 = FILL_AREA_STYLE ('',( #123 ) ) ;
#59 = AXIS2_PLACEMENT_3D ( 'NONE', #98, #218, #110 ) ;
#60 = CIRCLE ( 'NONE', #52, 8.000000000000003600 ) ;
#61 = CIRCLE ( 'NONE', #37, 8.000000000000003600 ) ;
#62 = AXIS2_PLACEMENT_3D ( 'NONE', #198, #221, #114 ) ;
#63 = DIRECTION ( 'NONE',  ( 0.0000000000000000000, 0.0000000000000000000, 1.000000000000000000 ) ) ;
#64 = ORIENTED_EDGE ( 'NONE', *, *, #210, .T. ) ;
#65 =( LENGTH_UNIT ( ) NAMED_UNIT ( * ) SI_UNIT ( .MILLI., .METRE. ) );
#66 = ORIENTED_EDGE ( 'NONE', *, *, #152, .T. ) ;
#67 = DIRECTION ( 'NONE',  ( 0.0000000000000000000, -1.000000000000000000, 0.0000000000000000000 ) ) ;
#68 =( GEOMETRIC_REPRESENTATION_CONTEXT ( 3 ) GLOBAL_UNCERTAINTY_ASSIGNED_CONTEXT ( ( #203 ) ) GLOBAL_UNIT_ASSIGNED_CONTEXT ( ( #65, #82, #165 ) ) REPRESENTATION_CONTEXT ( 'NONE', 'WORKASPACE' ) );
#69 = APPLICATION_PROTOCOL_DEFINITION ( 'draft international standard', 'automotive_design', 1998, #33 ) ;
#70 = COLOUR_RGB ( '',1.000000000000000000, 1.000000000000000000, 1.000000000000000000 ) ;
#71 = DIRECTION ( 'NONE',  ( 0.0000000000000000000, -1.224646799147353200E-016, 1.000000000000000000 ) ) ;
#72 = CARTESIAN_POINT ( 'NONE',  ( 50.82136399246731200, 26.08904114919495900, 8.000000000000003600 ) ) ;
#73 = PRESENTATION_LAYER_ASSIGNMENT (  '', '', ( #174 ) ) ;
#74 = CARTESIAN_POINT ( 'NONE',  ( 30.51156399111138700, 26.08904114919495900, 0.0000000000000000000 ) ) ;
#75 = FACE_OUTER_BOUND ( 'NONE', #36, .T. ) ;
#76 = ORIENTED_EDGE ( 'NONE', *, *, #185, .F. ) ;
#77 = CARTESIAN_POINT ( 'NONE',  ( 50.82136399246731200, 26.08904114919495900, 0.0000000000000000000 ) ) ;
#78 = ADVANCED_BREP_SHAPE_REPRESENTATION ( '130009', ( #17, #59 ), #162 ) ;
#79 = FACE_OUTER_BOUND ( 'NONE', #192, .T. ) ;
#80 = PRODUCT_RELATED_PRODUCT_CATEGORY ( 'part', '', ( #11 ) ) ;
#81 = EDGE_CURVE ( 'NONE', #222, #43, #20, .T. ) ;
#82 =( NAMED_UNIT ( * ) PLANE_ANGLE_UNIT ( ) SI_UNIT ( $, .RADIAN. ) );
#83 = VERTEX_POINT ( 'NONE', #35 ) ;
#84 = CIRCLE ( 'NONE', #142, 8.000000000000003600 ) ;
#85 = AXIS2_PLACEMENT_3D ( 'NONE', #50, #150, #47 ) ;
#86 = ORIENTED_EDGE ( 'NONE', *, *, #144, .T. ) ;
#87 = CARTESIAN_POINT ( 'NONE',  ( 65.57156399111140400, 26.08904114919495900, 0.0000000000000000000 ) ) ;
#88 = PRODUCT_CONTEXT ( 'NONE', #33, 'mechanical' ) ;
#89 = SURFACE_STYLE_USAGE ( .BOTH. , #122 ) ;
#90 = ORIENTED_EDGE ( 'NONE', *, *, #126, .T. ) ;
#91 = ORIENTED_EDGE ( 'NONE', *, *, #34, .T. ) ;
#92 = DIRECTION ( 'NONE',  ( 0.0000000000000000000, 1.000000000000000000, 1.224646799147353500E-016 ) ) ;
#93 = ORIENTED_EDGE ( 'NONE', *, *, #185, .T. ) ;
#94 = SPHERICAL_SURFACE ( 'NONE', #97, 16.78000000000000500 ) ;
#95 = CARTESIAN_POINT ( 'NONE',  ( 45.26176398975547200, 26.08904114919495900, 8.000000000000003600 ) ) ;
#96 = EDGE_LOOP ( 'NONE', ( #226, #216, #141, #53, #195, #93 ) ) ;
#97 = AXIS2_PLACEMENT_3D ( 'NONE', #136, #29, #67 ) ;
#98 = CARTESIAN_POINT ( 'NONE',  ( 0.0000000000000000000, 0.0000000000000000000, 0.0000000000000000000 ) ) ;
#99 = DIRECTION ( 'NONE',  ( -1.000000000000000000, -0.0000000000000000000, -0.0000000000000000000 ) ) ;
#100 = DIRECTION ( 'NONE',  ( -1.000000000000000000, -0.0000000000000000000, -0.0000000000000000000 ) ) ;
#101 = CIRCLE ( 'NONE', #44, 8.000000000000003600 ) ;
#102 = DIRECTION ( 'NONE',  ( 0.0000000000000000000, -1.000000000000000000, 0.0000000000000000000 ) ) ;
#103 =( NAMED_UNIT ( * ) PLANE_ANGLE_UNIT ( ) SI_UNIT ( $, .RADIAN. ) );
#104 = VERTEX_POINT ( 'NONE', #1 ) ;
#105 = DIRECTION ( 'NONE',  ( -1.000000000000000000, -0.0000000000000000000, -0.0000000000000000000 ) ) ;
#106 = DIRECTION ( 'NONE',  ( -1.000000000000000000, -0.0000000000000000000, -0.0000000000000000000 ) ) ;
#107 = ORIENTED_EDGE ( 'NONE', *, *, #210, .F. ) ;
#108 = MECHANICAL_DESIGN_GEOMETRIC_PRESENTATION_REPRESENTATION (  '', ( #179 ), #9 ) ;
#109 = DIRECTION ( 'NONE',  ( 0.0000000000000000000, 0.0000000000000000000, 1.000000000000000000 ) ) ;
#110 = DIRECTION ( 'NONE',  ( 1.000000000000000000, 0.0000000000000000000, 0.0000000000000000000 ) ) ;
#111 = DIRECTION ( 'NONE',  ( -1.000000000000000000, -0.0000000000000000000, -0.0000000000000000000 ) ) ;
#112 = CARTESIAN_POINT ( 'NONE',  ( 45.26176398975547200, 26.08904114919495900, 0.0000000000000000000 ) ) ;
#113 = EDGE_CURVE ( 'NONE', #43, #41, #61, .T. ) ;
#114 = DIRECTION ( 'NONE',  ( 0.0000000000000000000, 1.000000000000000000, 0.0000000000000000000 ) ) ;
#115 = ORIENTED_EDGE ( 'NONE', *, *, #126, .F. ) ;
#116 = AXIS2_PLACEMENT_3D ( 'NONE', #57, #105, #170 ) ;
#117 = FILL_AREA_STYLE_COLOUR ( '', #70 ) ;
#118 = CIRCLE ( 'NONE', #209, 8.000000000000003600 ) ;
#119 = ORIENTED_EDGE ( 'NONE', *, *, #34, .F. ) ;
#120 = EDGE_CURVE ( 'NONE', #4, #171, #228, .T. ) ;
#121 =( NAMED_UNIT ( * ) SI_UNIT ( $, .STERADIAN. ) SOLID_ANGLE_UNIT ( ) );
#122 = SURFACE_SIDE_STYLE ('',( #42 ) ) ;
#123 = FILL_AREA_STYLE_COLOUR ( '', #176 ) ;
#124 = ORIENTED_EDGE ( 'NONE', *, *, #48, .F. ) ;
#125 =( NAMED_UNIT ( * ) SI_UNIT ( $, .STERADIAN. ) SOLID_ANGLE_UNIT ( ) );
#126 = EDGE_CURVE ( 'NONE', #83, #12, #45, .T. ) ;
#127 = ORIENTED_EDGE ( 'NONE', *, *, #144, .F. ) ;
#128 = CIRCLE ( 'NONE', #172, 16.78000000000000500 ) ;
#129 = AXIS2_PLACEMENT_3D ( 'NONE', #74, #16, #92 ) ;
#130 = DIRECTION ( 'NONE',  ( -1.000000000000000000, -0.0000000000000000000, -0.0000000000000000000 ) ) ;
#131 = EDGE_CURVE ( 'NONE', #104, #149, #84, .T. ) ;
#132 = CIRCLE ( 'NONE', #32, 8.000000000000003600 ) ;
#133 = CARTESIAN_POINT ( 'NONE',  ( 65.57156399111140400, 26.08904114919495900, 0.0000000000000000000 ) ) ;
#134 = LINE ( 'NONE', #206, #30 ) ;
#135 = DIRECTION ( 'NONE',  ( 0.0000000000000000000, 0.0000000000000000000, 1.000000000000000000 ) ) ;
#136 = CARTESIAN_POINT ( 'NONE',  ( 65.57156399111140400, 26.08904114919495900, 0.0000000000000000000 ) ) ;
#137 = ADVANCED_FACE ( 'NONE', ( #79 ), #3, .T. ) ;
#138 = EDGE_CURVE ( 'NONE', #83, #222, #101, .T. ) ;
#139 = DIRECTION ( 'NONE',  ( 1.000000000000000000, 0.0000000000000000000, 0.0000000000000000000 ) ) ;
#140 = CARTESIAN_POINT ( 'NONE',  ( 65.57156399111140400, 26.08904114919495900, 0.0000000000000000000 ) ) ;
#141 = ORIENTED_EDGE ( 'NONE', *, *, #131, .F. ) ;
#142 = AXIS2_PLACEMENT_3D ( 'NONE', #194, #99, #10 ) ;
#143 = APPLICATION_CONTEXT ( 'automotive_design' ) ;
#144 = EDGE_CURVE ( 'NONE', #149, #171, #56, .T. ) ;
#145 = CYLINDRICAL_SURFACE ( 'NONE', #184, 8.000000000000003600 ) ;
#146 = ORIENTED_EDGE ( 'NONE', *, *, #230, .T. ) ;
#147 = CARTESIAN_POINT ( 'NONE',  ( 45.26176398975547200, 18.08904114919495500, -9.797174393178829600E-016 ) ) ;
#148 = DIRECTION ( 'NONE',  ( 0.0000000000000000000, 0.0000000000000000000, 1.000000000000000000 ) ) ;
#149 = VERTEX_POINT ( 'NONE', #215 ) ;
#150 = DIRECTION ( 'NONE',  ( 0.0000000000000000000, 0.0000000000000000000, -1.000000000000000000 ) ) ;
#151 = CARTESIAN_POINT ( 'NONE',  ( 50.82136399246731200, 26.08904114919495900, 0.0000000000000000000 ) ) ;
#152 = EDGE_CURVE ( 'NONE', #41, #164, #181, .T. ) ;
#153 = ORIENTED_EDGE ( 'NONE', *, *, #113, .T. ) ;
#154 = AXIS2_PLACEMENT_3D ( 'NONE', #219, #111, #148 ) ;
#155 = ORIENTED_EDGE ( 'NONE', *, *, #230, .F. ) ;
#156 = SURFACE_STYLE_FILL_AREA ( #28 ) ;
#157 = DIRECTION ( 'NONE',  ( 0.0000000000000000000, 0.0000000000000000000, 1.000000000000000000 ) ) ;
#158 = ORIENTED_EDGE ( 'NONE', *, *, #131, .T. ) ;
#159 = SPHERICAL_SURFACE ( 'NONE', #211, 16.78000000000000500 ) ;
#160 = DIRECTION ( 'NONE',  ( -1.000000000000000000, -0.0000000000000000000, -0.0000000000000000000 ) ) ;
#161 = FACE_OUTER_BOUND ( 'NONE', #167, .T. ) ;
#162 =( GEOMETRIC_REPRESENTATION_CONTEXT ( 3 ) GLOBAL_UNCERTAINTY_ASSIGNED_CONTEXT ( ( #5 ) ) GLOBAL_UNIT_ASSIGNED_CONTEXT ( ( #200, #103, #125 ) ) REPRESENTATION_CONTEXT ( 'NONE', 'WORKASPACE' ) );
#163 = PRESENTATION_LAYER_ASSIGNMENT (  '', '', ( #179 ) ) ;
#164 = VERTEX_POINT ( 'NONE', #95 ) ;
#165 =( NAMED_UNIT ( * ) SI_UNIT ( $, .STERADIAN. ) SOLID_ANGLE_UNIT ( ) );
#166 = EDGE_CURVE ( 'NONE', #164, #104, #118, .T. ) ;
#167 = EDGE_LOOP ( 'NONE', ( #115, #76, #182, #146 ) ) ;
#168 = DIRECTION ( 'NONE',  ( -1.000000000000000000, -0.0000000000000000000, -0.0000000000000000000 ) ) ;
#169 = SPHERICAL_SURFACE ( 'NONE', #85, 16.78000000000000500 ) ;
#170 = DIRECTION ( 'NONE',  ( 0.0000000000000000000, 0.0000000000000000000, 1.000000000000000000 ) ) ;
#171 = VERTEX_POINT ( 'NONE', #147 ) ;
#172 = AXIS2_PLACEMENT_3D ( 'NONE', #87, #54, #183 ) ;
#173 = ORIENTED_EDGE ( 'NONE', *, *, #81, .T. ) ;
#174 = STYLED_ITEM ( 'NONE', ( #202 ), #78 ) ;
#175 = CARTESIAN_POINT ( 'NONE',  ( 42.44986111413682300, 26.08904114919495900, 8.000000000000003600 ) ) ;
#176 = COLOUR_RGB ( '',1.000000000000000000, 1.000000000000000000, 1.000000000000000000 ) ;
#177 = DIRECTION ( 'NONE',  ( -1.000000000000000000, -0.0000000000000000000, -0.0000000000000000000 ) ) ;
#178 = CARTESIAN_POINT ( 'NONE',  ( 42.44986111413682300, 26.08904114919495900, 0.0000000000000000000 ) ) ;
#179 = STYLED_ITEM ( 'NONE', ( #31 ), #17 ) ;
#180 = CARTESIAN_POINT ( 'NONE',  ( 50.82136399246731200, 26.08904114919495900, -8.000000000000003600 ) ) ;
#181 = LINE ( 'NONE', #175, #217 ) ;
#182 = ORIENTED_EDGE ( 'NONE', *, *, #113, .F. ) ;
#183 = DIRECTION ( 'NONE',  ( -1.000000000000000000, 0.0000000000000000000, 0.0000000000000000000 ) ) ;
#184 = AXIS2_PLACEMENT_3D ( 'NONE', #178, #24, #25 ) ;
#185 = EDGE_CURVE ( 'NONE', #41, #83, #132, .T. ) ;
#186 = ADVANCED_FACE ( 'NONE', ( #223 ), #145, .T. ) ;
#187 = DIRECTION ( 'NONE',  ( 0.0000000000000000000, -1.000000000000000000, -1.224646799147353200E-016 ) ) ;
#188 = MECHANICAL_DESIGN_GEOMETRIC_PRESENTATION_REPRESENTATION (  '', ( #174 ), #68 ) ;
#189 = EDGE_LOOP ( 'NONE', ( #193, #90, #155, #7 ) ) ;
#190 = CARTESIAN_POINT ( 'NONE',  ( 50.82136399246731200, 18.08904114919495500, 0.0000000000000000000 ) ) ;
#191 = CARTESIAN_POINT ( 'NONE',  ( 30.51156399111138700, 26.08904114919495900, 0.0000000000000000000 ) ) ;
#192 = EDGE_LOOP ( 'NONE', ( #124, #173, #153, #66, #107, #127 ) ) ;
#193 = ORIENTED_EDGE ( 'NONE', *, *, #138, .F. ) ;
#194 = CARTESIAN_POINT ( 'NONE',  ( 45.26176398975547200, 26.08904114919495900, 0.0000000000000000000 ) ) ;
#195 = ORIENTED_EDGE ( 'NONE', *, *, #152, .F. ) ;
#196 = PRODUCT_DEFINITION_FORMATION_WITH_SPECIFIED_SOURCE ( 'ÈÎºÎ', '', #11, .NOT_KNOWN. ) ;
#197 = CARTESIAN_POINT ( 'NONE',  ( 45.26176398975547200, 26.08904114919495900, 0.0000000000000000000 ) ) ;
#198 = CARTESIAN_POINT ( 'NONE',  ( 30.51156399111138700, 26.08904114919495900, 0.0000000000000000000 ) ) ;
#199 = AXIS2_PLACEMENT_3D ( 'NONE', #140, #71, #187 ) ;
#200 =( LENGTH_UNIT ( ) NAMED_UNIT ( * ) SI_UNIT ( .MILLI., .METRE. ) );
#201 = CLOSED_SHELL ( 'NONE', ( #186, #231, #205, #212, #15, #137 ) ) ;
#202 = PRESENTATION_STYLE_ASSIGNMENT (( #89 ) ) ;
#203 = UNCERTAINTY_MEASURE_WITH_UNIT (LENGTH_MEASURE( 1.000000000000000100E-005 ), #65, 'distance_accuracy_value', 'NONE');
#204 =( LENGTH_UNIT ( ) NAMED_UNIT ( * ) SI_UNIT ( .MILLI., .METRE. ) );
#205 = ADVANCED_FACE ( 'NONE', ( #207 ), #38, .F. ) ;
#206 = CARTESIAN_POINT ( 'NONE',  ( 42.44986111413682300, 26.08904114919495900, -8.000000000000003600 ) ) ;
#207 = FACE_OUTER_BOUND ( 'NONE', #14, .T. ) ;
#208 = CARTESIAN_POINT ( 'NONE',  ( 50.82136399246731200, 26.08904114919495900, 0.0000000000000000000 ) ) ;
#209 = AXIS2_PLACEMENT_3D ( 'NONE', #8, #130, #63 ) ;
#210 = EDGE_CURVE ( 'NONE', #171, #164, #60, .T. ) ;
#211 = AXIS2_PLACEMENT_3D ( 'NONE', #133, #135, #102 ) ;
#212 = ADVANCED_FACE ( 'NONE', ( #75 ), #169, .F. ) ;
#213 = PRODUCT_DEFINITION_SHAPE ( 'NONE', 'NONE',  #214 ) ;
#214 = PRODUCT_DEFINITION ( 'Î´Öª', '', #196, #232 ) ;
#215 = CARTESIAN_POINT ( 'NONE',  ( 45.26176398975547200, 26.08904114919495900, -8.000000000000003600 ) ) ;
#216 = ORIENTED_EDGE ( 'NONE', *, *, #48, .T. ) ;
#217 = VECTOR ( 'NONE', #22, 1000.000000000000000 ) ;
#218 = DIRECTION ( 'NONE',  ( 0.0000000000000000000, 0.0000000000000000000, 1.000000000000000000 ) ) ;
#219 = CARTESIAN_POINT ( 'NONE',  ( 42.44986111413682300, 26.08904114919495900, 0.0000000000000000000 ) ) ;
#220 = DIRECTION ( 'NONE',  ( 0.0000000000000000000, 0.0000000000000000000, 1.000000000000000000 ) ) ;
#221 = DIRECTION ( 'NONE',  ( 0.0000000000000000000, 0.0000000000000000000, -1.000000000000000000 ) ) ;
#222 = VERTEX_POINT ( 'NONE', #180 ) ;
#223 = FACE_OUTER_BOUND ( 'NONE', #96, .T. ) ;
#224 = UNCERTAINTY_MEASURE_WITH_UNIT (LENGTH_MEASURE( 1.000000000000000100E-005 ), #204, 'distance_accuracy_value', 'NONE');
#225 = CARTESIAN_POINT ( 'NONE',  ( 47.29156399111138900, 26.08904114919495900, 0.0000000000000000000 ) ) ;
#226 = ORIENTED_EDGE ( 'NONE', *, *, #138, .T. ) ;
#227 = SURFACE_SIDE_STYLE ('',( #156 ) ) ;
#228 = CIRCLE ( 'NONE', #129, 16.78000000000000100 ) ;
#229 =( NAMED_UNIT ( * ) PLANE_ANGLE_UNIT ( ) SI_UNIT ( $, .RADIAN. ) );
#230 = EDGE_CURVE ( 'NONE', #43, #12, #128, .T. ) ;
#231 = ADVANCED_FACE ( 'NONE', ( #6 ), #94, .F. ) ;
#232 = PRODUCT_DEFINITION_CONTEXT ( 'detailed design', #143, 'design' ) ;
ENDSEC;
END-ISO-10303-21;
