ISO-10303-21;
HEADER;
FILE_DESCRIPTION (( 'STEP AP214' ),
    '1' );
FILE_NAME ('130004.STEP',
    '2019-06-28T05:51:08',
    ( '' ),
    ( '' ),
    'SwSTEP 2.0',
    'SolidWorks 2016',
    '' );
FILE_SCHEMA (( 'AUTOMOTIVE_DESIGN' ));
ENDSEC;

DATA;
#1 = AXIS2_PLACEMENT_3D ( 'NONE', #73, #79, #186 ) ;
#2 = AXIS2_PLACEMENT_3D ( 'NONE', #74, #104, #146 ) ;
#3 = EDGE_CURVE ( 'NONE', #35, #97, #138, .T. ) ;
#4 = SURFACE_SIDE_STYLE ('',( #11 ) ) ;
#5 = DIRECTION ( 'NONE',  ( 0.0000000000000000000, 1.224646799147353200E-016, -1.000000000000000000 ) ) ;
#6 = EDGE_LOOP ( 'NONE', ( #23, #37, #95, #69, #93 ) ) ;
#7 = DIRECTION ( 'NONE',  ( 0.0000000000000000000, 0.0000000000000000000, 1.000000000000000000 ) ) ;
#8 =( GEOMETRIC_REPRESENTATION_CONTEXT ( 3 ) GLOBAL_UNCERTAINTY_ASSIGNED_CONTEXT ( ( #89 ) ) GLOBAL_UNIT_ASSIGNED_CONTEXT ( ( #64, #48, #33 ) ) REPRESENTATION_CONTEXT ( 'NONE', 'WORKASPACE' ) );
#9 = AXIS2_PLACEMENT_3D ( 'NONE', #20, #31, #44 ) ;
#10 = TOROIDAL_SURFACE ( 'NONE', #26, 0.04132314154383504000, 10.49999999999999600 ) ;
#11 = SURFACE_STYLE_FILL_AREA ( #72 ) ;
#12 = VERTEX_POINT ( 'NONE', #161 ) ;
#13 = ORIENTED_EDGE ( 'NONE', *, *, #205, .F. ) ;
#14 = ADVANCED_BREP_SHAPE_REPRESENTATION ( '130004', ( #65, #120 ), #102 ) ;
#15 = ORIENTED_EDGE ( 'NONE', *, *, #3, .T. ) ;
#16 = DIRECTION ( 'NONE',  ( -1.000000000000000000, -0.0000000000000000000, -0.0000000000000000000 ) ) ;
#17 = FACE_OUTER_BOUND ( 'NONE', #115, .T. ) ;
#18 = CARTESIAN_POINT ( 'NONE',  ( 23.01403728893992100, 6.522260287298739600, 0.0000000000000000000 ) ) ;
#19 = PRESENTATION_STYLE_ASSIGNMENT (( #180 ) ) ;
#20 = CARTESIAN_POINT ( 'NONE',  ( 10.61246527853420600, 6.522260287298739600, 0.0000000000000000000 ) ) ;
#21 = DIRECTION ( 'NONE',  ( 1.000000000000000000, 0.0000000000000000000, 0.0000000000000000000 ) ) ;
#22 = CARTESIAN_POINT ( 'NONE',  ( 1.014118603637021600, 6.522260287298739600, 0.0000000000000000000 ) ) ;
#23 = ORIENTED_EDGE ( 'NONE', *, *, #70, .F. ) ;
#24 = ADVANCED_FACE ( 'NONE', ( #187 ), #172, .F. ) ;
#25 = FACE_OUTER_BOUND ( 'NONE', #6, .T. ) ;
#26 = AXIS2_PLACEMENT_3D ( 'NONE', #18, #105, #29 ) ;
#27 = ORIENTED_EDGE ( 'NONE', *, *, #106, .F. ) ;
#28 = CARTESIAN_POINT ( 'NONE',  ( 1.014118603637021600, 6.522260287298739600, 0.0000000000000000000 ) ) ;
#29 = DIRECTION ( 'NONE',  ( 0.0000000000000000000, 0.0000000000000000000, 1.000000000000000000 ) ) ;
#30 = SURFACE_STYLE_FILL_AREA ( #32 ) ;
#31 = DIRECTION ( 'NONE',  ( -1.000000000000000000, -0.0000000000000000000, -0.0000000000000000000 ) ) ;
#32 = FILL_AREA_STYLE ('',( #169 ) ) ;
#33 =( NAMED_UNIT ( * ) SI_UNIT ( $, .STERADIAN. ) SOLID_ANGLE_UNIT ( ) );
#34 = FACE_OUTER_BOUND ( 'NONE', #191, .T. ) ;
#35 = VERTEX_POINT ( 'NONE', #124 ) ;
#36 = STYLED_ITEM ( 'NONE', ( #185 ), #14 ) ;
#37 = ORIENTED_EDGE ( 'NONE', *, *, #166, .T. ) ;
#38 = FACE_OUTER_BOUND ( 'NONE', #207, .T. ) ;
#39 = DIRECTION ( 'NONE',  ( 0.0000000000000000000, 1.000000000000000000, 0.0000000000000000000 ) ) ;
#40 = EDGE_LOOP ( 'NONE', ( #98, #202, #155, #136 ) ) ;
#41 = CARTESIAN_POINT ( 'NONE',  ( 12.51411860363702500, 6.522260287298739600, 0.0000000000000000000 ) ) ;
#42 = TOROIDAL_SURFACE ( 'NONE', #112, 0.04132314154383504000, 10.49999999999999600 ) ;
#43 = DIRECTION ( 'NONE',  ( 0.0000000000000000000, 1.000000000000000000, 1.224646799147353200E-016 ) ) ;
#44 = DIRECTION ( 'NONE',  ( 0.0000000000000000000, 0.0000000000000000000, 1.000000000000000000 ) ) ;
#45 = PRODUCT_DEFINITION_CONTEXT ( 'detailed design', #151, 'design' ) ;
#46 = PRODUCT_CONTEXT ( 'NONE', #67, 'mechanical' ) ;
#47 = ORIENTED_EDGE ( 'NONE', *, *, #70, .T. ) ;
#48 =( NAMED_UNIT ( * ) PLANE_ANGLE_UNIT ( ) SI_UNIT ( $, .RADIAN. ) );
#49 = VERTEX_POINT ( 'NONE', #212 ) ;
#50 = VERTEX_POINT ( 'NONE', #145 ) ;
#51 = ADVANCED_FACE ( 'NONE', ( #129 ), #42, .F. ) ;
#52 = CIRCLE ( 'NONE', #149, 1.500000000000000400 ) ;
#53 = ORIENTED_EDGE ( 'NONE', *, *, #94, .T. ) ;
#54 = ORIENTED_EDGE ( 'NONE', *, *, #116, .T. ) ;
#55 = DIRECTION ( 'NONE',  ( 0.0000000000000000000, -8.260587980841941200E-017, 1.000000000000000000 ) ) ;
#56 = VECTOR ( 'NONE', #16, 1000.000000000000000 ) ;
#57 = CARTESIAN_POINT ( 'NONE',  ( 10.61246527853420600, 6.522260287298739600, 0.0000000000000000000 ) ) ;
#58 = DIRECTION ( 'NONE',  ( 0.0000000000000000000, 1.000000000000000000, 0.0000000000000000000 ) ) ;
#59 = DIRECTION ( 'NONE',  ( 0.0000000000000000000, -1.000000000000000000, 0.0000000000000000000 ) ) ;
#60 = DIRECTION ( 'NONE',  ( -1.000000000000000000, -0.0000000000000000000, -0.0000000000000000000 ) ) ;
#61 = ORIENTED_EDGE ( 'NONE', *, *, #133, .F. ) ;
#62 = CARTESIAN_POINT ( 'NONE',  ( 1.014118603637021600, 6.522260287298739600, 0.0000000000000000000 ) ) ;
#63 =( NAMED_UNIT ( * ) PLANE_ANGLE_UNIT ( ) SI_UNIT ( $, .RADIAN. ) );
#64 =( LENGTH_UNIT ( ) NAMED_UNIT ( * ) SI_UNIT ( .MILLI., .METRE. ) );
#65 = MANIFOLD_SOLID_BREP ( 'Ðý×ª1', #118 ) ;
#66 = DIRECTION ( 'NONE',  ( 1.000000000000000000, 0.0000000000000000000, 0.0000000000000000000 ) ) ;
#67 = APPLICATION_CONTEXT ( 'automotive_design' ) ;
#68 = LINE ( 'NONE', #188, #177 ) ;
#69 = ORIENTED_EDGE ( 'NONE', *, *, #94, .F. ) ;
#70 = EDGE_CURVE ( 'NONE', #35, #12, #85, .T. ) ;
#71 = COLOUR_RGB ( '',1.000000000000000000, 1.000000000000000000, 1.000000000000000000 ) ;
#72 = FILL_AREA_STYLE ('',( #183 ) ) ;
#73 = CARTESIAN_POINT ( 'NONE',  ( 11.40642344905028700, 6.522260287298739600, 0.0000000000000000000 ) ) ;
#74 = CARTESIAN_POINT ( 'NONE',  ( 11.40642344905028700, 6.522260287298739600, 0.0000000000000000000 ) ) ;
#75 = DIRECTION ( 'NONE',  ( -1.000000000000000000, -0.0000000000000000000, -0.0000000000000000000 ) ) ;
#76 = UNCERTAINTY_MEASURE_WITH_UNIT (LENGTH_MEASURE( 1.000000000000000100E-005 ), #160, 'distance_accuracy_value', 'NONE');
#77 = EDGE_LOOP ( 'NONE', ( #130, #88, #174 ) ) ;
#78 = MECHANICAL_DESIGN_GEOMETRIC_PRESENTATION_REPRESENTATION (  '', ( #36 ), #8 ) ;
#79 = DIRECTION ( 'NONE',  ( -1.000000000000000000, -0.0000000000000000000, -0.0000000000000000000 ) ) ;
#80 = ORIENTED_EDGE ( 'NONE', *, *, #116, .F. ) ;
#81 = DIRECTION ( 'NONE',  ( -1.000000000000000000, -0.0000000000000000000, -0.0000000000000000000 ) ) ;
#82 = EDGE_CURVE ( 'NONE', #100, #97, #157, .T. ) ;
#83 =( LENGTH_UNIT ( ) NAMED_UNIT ( * ) SI_UNIT ( .MILLI., .METRE. ) );
#84 = CARTESIAN_POINT ( 'NONE',  ( 0.0000000000000000000, 0.0000000000000000000, 0.0000000000000000000 ) ) ;
#85 = LINE ( 'NONE', #190, #56 ) ;
#86 = AXIS2_PLACEMENT_3D ( 'NONE', #22, #99, #66 ) ;
#87 = ADVANCED_FACE ( 'NONE', ( #17 ), #134, .F. ) ;
#88 = ORIENTED_EDGE ( 'NONE', *, *, #162, .F. ) ;
#89 = UNCERTAINTY_MEASURE_WITH_UNIT (LENGTH_MEASURE( 1.000000000000000100E-005 ), #64, 'distance_accuracy_value', 'NONE');
#90 = COLOUR_RGB ( '',1.000000000000000000, 1.000000000000000000, 1.000000000000000000 ) ;
#91 = VERTEX_POINT ( 'NONE', #150 ) ;
#92 = DIRECTION ( 'NONE',  ( 0.0000000000000000000, 0.0000000000000000000, 1.000000000000000000 ) ) ;
#93 = ORIENTED_EDGE ( 'NONE', *, *, #140, .F. ) ;
#94 = EDGE_CURVE ( 'NONE', #91, #50, #143, .T. ) ;
#95 = ORIENTED_EDGE ( 'NONE', *, *, #133, .T. ) ;
#96 = DIRECTION ( 'NONE',  ( 0.0000000000000000000, 0.0000000000000000000, -1.000000000000000000 ) ) ;
#97 = VERTEX_POINT ( 'NONE', #41 ) ;
#98 = ORIENTED_EDGE ( 'NONE', *, *, #119, .F. ) ;
#99 = DIRECTION ( 'NONE',  ( 0.0000000000000000000, 0.0000000000000000000, 1.000000000000000000 ) ) ;
#100 = VERTEX_POINT ( 'NONE', #132 ) ;
#101 = STYLED_ITEM ( 'NONE', ( #19 ), #65 ) ;
#102 =( GEOMETRIC_REPRESENTATION_CONTEXT ( 3 ) GLOBAL_UNCERTAINTY_ASSIGNED_CONTEXT ( ( #178 ) ) GLOBAL_UNIT_ASSIGNED_CONTEXT ( ( #83, #63, #204 ) ) REPRESENTATION_CONTEXT ( 'NONE', 'WORKASPACE' ) );
#103 = CARTESIAN_POINT ( 'NONE',  ( 23.01403728893992100, 6.522260287298739600, -0.04132314154383504000 ) ) ;
#104 = DIRECTION ( 'NONE',  ( -1.000000000000000000, -0.0000000000000000000, -0.0000000000000000000 ) ) ;
#105 = DIRECTION ( 'NONE',  ( -1.000000000000000000, -0.0000000000000000000, -0.0000000000000000000 ) ) ;
#106 = EDGE_CURVE ( 'NONE', #49, #12, #107, .T. ) ;
#107 = CIRCLE ( 'NONE', #2, 1.500000000000000400 ) ;
#108 = VERTEX_POINT ( 'NONE', #110 ) ;
#109 = DIRECTION ( 'NONE',  ( 0.0000000000000000000, 0.0000000000000000000, -1.000000000000000000 ) ) ;
#110 = CARTESIAN_POINT ( 'NONE',  ( 11.51411860363702500, 6.522260287298740500, 0.0000000000000000000 ) ) ;
#111 = DIRECTION ( 'NONE',  ( 0.0000000000000000000, 0.0000000000000000000, 1.000000000000000000 ) ) ;
#112 = AXIS2_PLACEMENT_3D ( 'NONE', #123, #196, #92 ) ;
#113 = ADVANCED_FACE ( 'NONE', ( #34 ), #10, .F. ) ;
#114 = DIRECTION ( 'NONE',  ( 0.0000000000000000000, 0.0000000000000000000, 1.000000000000000000 ) ) ;
#115 = EDGE_LOOP ( 'NONE', ( #13, #211, #53, #54 ) ) ;
#116 = EDGE_CURVE ( 'NONE', #50, #49, #52, .T. ) ;
#117 = CIRCLE ( 'NONE', #208, 1.500000000000002200 ) ;
#118 = CLOSED_SHELL ( 'NONE', ( #87, #137, #113, #51, #158, #24 ) ) ;
#119 = EDGE_CURVE ( 'NONE', #108, #91, #163, .T. ) ;
#120 = AXIS2_PLACEMENT_3D ( 'NONE', #84, #111, #21 ) ;
#121 = DIRECTION ( 'NONE',  ( -0.0000000000000000000, 1.000000000000000000, 1.224646799147353200E-016 ) ) ;
#122 = PRODUCT ( '130004', '130004', '', ( #46 ) ) ;
#123 = CARTESIAN_POINT ( 'NONE',  ( 23.01403728893992100, 6.522260287298739600, 0.0000000000000000000 ) ) ;
#124 = CARTESIAN_POINT ( 'NONE',  ( 12.61585178267949600, 6.522260287298739600, -1.500000000000000000 ) ) ;
#125 = AXIS2_PLACEMENT_3D ( 'NONE', #103, #121, #55 ) ;
#126 = CARTESIAN_POINT ( 'NONE',  ( 1.014118603637021600, 6.522260287298739600, 0.0000000000000000000 ) ) ;
#127 = CIRCLE ( 'NONE', #194, 1.500000000000000400 ) ;
#128 = DIRECTION ( 'NONE',  ( -1.000000000000000000, -0.0000000000000000000, -0.0000000000000000000 ) ) ;
#129 = FACE_OUTER_BOUND ( 'NONE', #77, .T. ) ;
#130 = ORIENTED_EDGE ( 'NONE', *, *, #3, .F. ) ;
#131 = DIRECTION ( 'NONE',  ( 0.0000000000000000000, 0.0000000000000000000, 1.000000000000000000 ) ) ;
#132 = CARTESIAN_POINT ( 'NONE',  ( 12.61585178267949600, 6.522260287298739600, 1.500000000000000000 ) ) ;
#133 = EDGE_CURVE ( 'NONE', #100, #50, #68, .T. ) ;
#134 = SPHERICAL_SURFACE ( 'NONE', #176, 10.50000000000000200 ) ;
#135 = PRODUCT_DEFINITION_SHAPE ( 'NONE', 'NONE',  #141 ) ;
#136 = ORIENTED_EDGE ( 'NONE', *, *, #140, .T. ) ;
#137 = ADVANCED_FACE ( 'NONE', ( #38 ), #200, .T. ) ;
#138 = CIRCLE ( 'NONE', #125, 10.49999999999999600 ) ;
#139 = CARTESIAN_POINT ( 'NONE',  ( 12.61585178267949600, 6.522260287298739600, 0.0000000000000000000 ) ) ;
#140 = EDGE_CURVE ( 'NONE', #12, #91, #127, .T. ) ;
#141 = PRODUCT_DEFINITION ( 'Î´Öª', '', #197, #45 ) ;
#142 = ORIENTED_EDGE ( 'NONE', *, *, #82, .F. ) ;
#143 = CIRCLE ( 'NONE', #1, 1.500000000000000400 ) ;
#144 = SHAPE_DEFINITION_REPRESENTATION ( #135, #14 ) ;
#145 = CARTESIAN_POINT ( 'NONE',  ( 11.40642344905028700, 6.522260287298739600, 1.500000000000000400 ) ) ;
#146 = DIRECTION ( 'NONE',  ( 0.0000000000000000000, 0.0000000000000000000, 1.000000000000000000 ) ) ;
#147 = CARTESIAN_POINT ( 'NONE',  ( 11.40642344905028700, 6.522260287298739600, 0.0000000000000000000 ) ) ;
#148 = PRESENTATION_LAYER_ASSIGNMENT (  '', '', ( #101 ) ) ;
#149 = AXIS2_PLACEMENT_3D ( 'NONE', #203, #128, #198 ) ;
#150 = CARTESIAN_POINT ( 'NONE',  ( 11.40642344905028700, 5.022260287298737900, -1.836970198721032900E-016 ) ) ;
#151 = APPLICATION_CONTEXT ( 'automotive_design' ) ;
#152 = APPLICATION_PROTOCOL_DEFINITION ( 'draft international standard', 'automotive_design', 1998, #151 ) ;
#153 = PRESENTATION_LAYER_ASSIGNMENT (  '', '', ( #36 ) ) ;
#154 = CIRCLE ( 'NONE', #159, 1.500000000000002200 ) ;
#155 = ORIENTED_EDGE ( 'NONE', *, *, #106, .T. ) ;
#156 = AXIS2_PLACEMENT_3D ( 'NONE', #62, #5, #43 ) ;
#157 = CIRCLE ( 'NONE', #181, 10.49999999999999600 ) ;
#158 = ADVANCED_FACE ( 'NONE', ( #25 ), #170, .T. ) ;
#159 = AXIS2_PLACEMENT_3D ( 'NONE', #184, #81, #114 ) ;
#160 =( LENGTH_UNIT ( ) NAMED_UNIT ( * ) SI_UNIT ( .MILLI., .METRE. ) );
#161 = CARTESIAN_POINT ( 'NONE',  ( 11.40642344905028700, 6.522260287298739600, -1.500000000000000400 ) ) ;
#162 = EDGE_CURVE ( 'NONE', #100, #35, #154, .T. ) ;
#163 = CIRCLE ( 'NONE', #156, 10.50000000000000200 ) ;
#164 = DIRECTION ( 'NONE',  ( -1.000000000000000000, -0.0000000000000000000, -0.0000000000000000000 ) ) ;
#165 = CARTESIAN_POINT ( 'NONE',  ( 23.01403728893992100, 6.522260287298739600, 0.04132314154383504000 ) ) ;
#166 = EDGE_CURVE ( 'NONE', #35, #100, #117, .T. ) ;
#167 = APPLICATION_PROTOCOL_DEFINITION ( 'draft international standard', 'automotive_design', 1998, #67 ) ;
#168 = SURFACE_STYLE_USAGE ( .BOTH. , #206 ) ;
#169 = FILL_AREA_STYLE_COLOUR ( '', #71 ) ;
#170 = CYLINDRICAL_SURFACE ( 'NONE', #9, 1.500000000000000400 ) ;
#171 = DIRECTION ( 'NONE',  ( -1.000000000000000000, -0.0000000000000000000, -0.0000000000000000000 ) ) ;
#172 = SPHERICAL_SURFACE ( 'NONE', #173, 10.50000000000000200 ) ;
#173 = AXIS2_PLACEMENT_3D ( 'NONE', #28, #182, #39 ) ;
#174 = ORIENTED_EDGE ( 'NONE', *, *, #82, .T. ) ;
#175 = PRODUCT_RELATED_PRODUCT_CATEGORY ( 'part', '', ( #122 ) ) ;
#176 = AXIS2_PLACEMENT_3D ( 'NONE', #126, #109, #58 ) ;
#177 = VECTOR ( 'NONE', #60, 1000.000000000000000 ) ;
#178 = UNCERTAINTY_MEASURE_WITH_UNIT (LENGTH_MEASURE( 1.000000000000000100E-005 ), #83, 'distance_accuracy_value', 'NONE');
#179 = ORIENTED_EDGE ( 'NONE', *, *, #162, .T. ) ;
#180 = SURFACE_STYLE_USAGE ( .BOTH. , #4 ) ;
#181 = AXIS2_PLACEMENT_3D ( 'NONE', #165, #59, #96 ) ;
#182 = DIRECTION ( 'NONE',  ( 0.0000000000000000000, 0.0000000000000000000, -1.000000000000000000 ) ) ;
#183 = FILL_AREA_STYLE_COLOUR ( '', #90 ) ;
#184 = CARTESIAN_POINT ( 'NONE',  ( 12.61585178267949600, 6.522260287298739600, 0.0000000000000000000 ) ) ;
#185 = PRESENTATION_STYLE_ASSIGNMENT (( #168 ) ) ;
#186 = DIRECTION ( 'NONE',  ( 0.0000000000000000000, 0.0000000000000000000, 1.000000000000000000 ) ) ;
#187 = FACE_OUTER_BOUND ( 'NONE', #40, .T. ) ;
#188 = CARTESIAN_POINT ( 'NONE',  ( 10.61246527853420600, 6.522260287298739600, 1.500000000000000400 ) ) ;
#189 = MECHANICAL_DESIGN_GEOMETRIC_PRESENTATION_REPRESENTATION (  '', ( #101 ), #193 ) ;
#190 = CARTESIAN_POINT ( 'NONE',  ( 10.61246527853420600, 6.522260287298739600, -1.500000000000000400 ) ) ;
#191 = EDGE_LOOP ( 'NONE', ( #195, #15, #142 ) ) ;
#192 = DIRECTION ( 'NONE',  ( 0.0000000000000000000, 0.0000000000000000000, 1.000000000000000000 ) ) ;
#193 =( GEOMETRIC_REPRESENTATION_CONTEXT ( 3 ) GLOBAL_UNCERTAINTY_ASSIGNED_CONTEXT ( ( #76 ) ) GLOBAL_UNIT_ASSIGNED_CONTEXT ( ( #160, #201, #199 ) ) REPRESENTATION_CONTEXT ( 'NONE', 'WORKASPACE' ) );
#194 = AXIS2_PLACEMENT_3D ( 'NONE', #147, #164, #131 ) ;
#195 = ORIENTED_EDGE ( 'NONE', *, *, #166, .F. ) ;
#196 = DIRECTION ( 'NONE',  ( -1.000000000000000000, -0.0000000000000000000, -0.0000000000000000000 ) ) ;
#197 = PRODUCT_DEFINITION_FORMATION_WITH_SPECIFIED_SOURCE ( 'ÈÎºÎ', '', #122, .NOT_KNOWN. ) ;
#198 = DIRECTION ( 'NONE',  ( 0.0000000000000000000, 0.0000000000000000000, 1.000000000000000000 ) ) ;
#199 =( NAMED_UNIT ( * ) SI_UNIT ( $, .STERADIAN. ) SOLID_ANGLE_UNIT ( ) );
#200 = CYLINDRICAL_SURFACE ( 'NONE', #210, 1.500000000000000400 ) ;
#201 =( NAMED_UNIT ( * ) PLANE_ANGLE_UNIT ( ) SI_UNIT ( $, .RADIAN. ) );
#202 = ORIENTED_EDGE ( 'NONE', *, *, #205, .T. ) ;
#203 = CARTESIAN_POINT ( 'NONE',  ( 11.40642344905028700, 6.522260287298739600, 0.0000000000000000000 ) ) ;
#204 =( NAMED_UNIT ( * ) SI_UNIT ( $, .STERADIAN. ) SOLID_ANGLE_UNIT ( ) );
#205 = EDGE_CURVE ( 'NONE', #108, #49, #209, .T. ) ;
#206 = SURFACE_SIDE_STYLE ('',( #30 ) ) ;
#207 = EDGE_LOOP ( 'NONE', ( #179, #47, #27, #80, #61 ) ) ;
#208 = AXIS2_PLACEMENT_3D ( 'NONE', #139, #171, #192 ) ;
#209 = CIRCLE ( 'NONE', #86, 10.50000000000000200 ) ;
#210 = AXIS2_PLACEMENT_3D ( 'NONE', #57, #75, #7 ) ;
#211 = ORIENTED_EDGE ( 'NONE', *, *, #119, .T. ) ;
#212 = CARTESIAN_POINT ( 'NONE',  ( 11.40642344905028700, 8.022260287298742300, 0.0000000000000000000 ) ) ;
ENDSEC;
END-ISO-10303-21;
