ISO-10303-21;
HEADER;
FILE_DESCRIPTION (( 'STEP AP214' ),
    '1' );
FILE_NAME ('130002.STEP',
    '2019-06-28T02:13:10',
    ( '' ),
    ( '' ),
    'SwSTEP 2.0',
    'SolidWorks 2016',
    '' );
FILE_SCHEMA (( 'AUTOMOTIVE_DESIGN' ));
ENDSEC;

DATA;
#1 = DIRECTION ( 'NONE',  ( -1.000000000000000000, -0.0000000000000000000, -0.0000000000000000000 ) ) ;
#2 = SURFACE_STYLE_FILL_AREA ( #47 ) ;
#3 = DIRECTION ( 'NONE',  ( 0.0000000000000000000, 0.0000000000000000000, 1.000000000000000000 ) ) ;
#4 = AXIS2_PLACEMENT_3D ( 'NONE', #187, #208, #94 ) ;
#5 = VERTEX_POINT ( 'NONE', #164 ) ;
#6 = ADVANCED_FACE ( 'NONE', ( #80 ), #44, .F. ) ;
#7 = AXIS2_PLACEMENT_3D ( 'NONE', #9, #79, #30 ) ;
#8 = CARTESIAN_POINT ( 'NONE',  ( 10.61246527853420600, 6.522260287298739600, 0.0000000000000000000 ) ) ;
#9 = CARTESIAN_POINT ( 'NONE',  ( 15.77411860363702300, 6.522260287298739600, 0.0000000000000000000 ) ) ;
#10 = ORIENTED_EDGE ( 'NONE', *, *, #54, .F. ) ;
#11 = ORIENTED_EDGE ( 'NONE', *, *, #59, .F. ) ;
#12 = MECHANICAL_DESIGN_GEOMETRIC_PRESENTATION_REPRESENTATION (  '', ( #115 ), #95 ) ;
#13 = DIRECTION ( 'NONE',  ( 0.0000000000000000000, 0.0000000000000000000, 1.000000000000000000 ) ) ;
#14 = APPLICATION_PROTOCOL_DEFINITION ( 'draft international standard', 'automotive_design', 1998, #69 ) ;
#15 = DIRECTION ( 'NONE',  ( 0.0000000000000000000, 0.0000000000000000000, -1.000000000000000000 ) ) ;
#16 = ORIENTED_EDGE ( 'NONE', *, *, #200, .F. ) ;
#17 = PRODUCT_DEFINITION_CONTEXT ( 'detailed design', #186, 'design' ) ;
#18 =( NAMED_UNIT ( * ) SI_UNIT ( $, .STERADIAN. ) SOLID_ANGLE_UNIT ( ) );
#19 = AXIS2_PLACEMENT_3D ( 'NONE', #185, #137, #102 ) ;
#20 = EDGE_CURVE ( 'NONE', #197, #5, #165, .T. ) ;
#21 = CARTESIAN_POINT ( 'NONE',  ( 12.87971020121693400, 6.522260287298739600, -1.500000000000000400 ) ) ;
#22 = DIRECTION ( 'NONE',  ( -1.000000000000000000, -0.0000000000000000000, -0.0000000000000000000 ) ) ;
#23 = FACE_OUTER_BOUND ( 'NONE', #154, .T. ) ;
#24 = ORIENTED_EDGE ( 'NONE', *, *, #86, .T. ) ;
#25 =( GEOMETRIC_REPRESENTATION_CONTEXT ( 3 ) GLOBAL_UNCERTAINTY_ASSIGNED_CONTEXT ( ( #131 ) ) GLOBAL_UNIT_ASSIGNED_CONTEXT ( ( #152, #225, #121 ) ) REPRESENTATION_CONTEXT ( 'NONE', 'WORKASPACE' ) );
#26 = CARTESIAN_POINT ( 'NONE',  ( 11.14852700605711000, 6.522260287298739600, 0.0000000000000000000 ) ) ;
#27 = CARTESIAN_POINT ( 'NONE',  ( 11.14852700605711000, 6.522260287298739600, 0.0000000000000000000 ) ) ;
#28 = VECTOR ( 'NONE', #104, 1000.000000000000000 ) ;
#29 = CARTESIAN_POINT ( 'NONE',  ( 10.61246527853420600, 6.522260287298739600, 0.0000000000000000000 ) ) ;
#30 = DIRECTION ( 'NONE',  ( -1.000000000000000000, 0.0000000000000000000, 0.0000000000000000000 ) ) ;
#31 = ADVANCED_BREP_SHAPE_REPRESENTATION ( '130002', ( #78, #19 ), #60 ) ;
#32 = CARTESIAN_POINT ( 'NONE',  ( 12.51411860363702100, 6.522260287298739600, 0.0000000000000000000 ) ) ;
#33 = PRODUCT_CONTEXT ( 'NONE', #69, 'mechanical' ) ;
#34 = CARTESIAN_POINT ( 'NONE',  ( 15.77411860363702300, 6.522260287298739600, 0.0000000000000000000 ) ) ;
#35 = CIRCLE ( 'NONE', #228, 1.500000000000000400 ) ;
#36 = EDGE_CURVE ( 'NONE', #61, #197, #65, .T. ) ;
#37 = CIRCLE ( 'NONE', #159, 3.259999999999998000 ) ;
#38 = DIRECTION ( 'NONE',  ( 0.0000000000000000000, 0.0000000000000000000, -1.000000000000000000 ) ) ;
#39 = ADVANCED_FACE ( 'NONE', ( #157 ), #214, .T. ) ;
#40 = DIRECTION ( 'NONE',  ( 0.0000000000000000000, 0.0000000000000000000, 1.000000000000000000 ) ) ;
#41 = DIRECTION ( 'NONE',  ( -1.000000000000000000, -0.0000000000000000000, -0.0000000000000000000 ) ) ;
#42 = PRESENTATION_LAYER_ASSIGNMENT (  '', '', ( #230 ) ) ;
#43 = DIRECTION ( 'NONE',  ( 0.0000000000000000000, 0.0000000000000000000, 1.000000000000000000 ) ) ;
#44 = SPHERICAL_SURFACE ( 'NONE', #181, 3.260000000000000700 ) ;
#45 = UNCERTAINTY_MEASURE_WITH_UNIT (LENGTH_MEASURE( 1.000000000000000100E-005 ), #143, 'distance_accuracy_value', 'NONE');
#46 = CARTESIAN_POINT ( 'NONE',  ( 11.14852700605711000, 6.522260287298739600, -1.500000000000000400 ) ) ;
#47 = FILL_AREA_STYLE ('',( #140 ) ) ;
#48 =( NAMED_UNIT ( * ) PLANE_ANGLE_UNIT ( ) SI_UNIT ( $, .RADIAN. ) );
#49 = SURFACE_STYLE_USAGE ( .BOTH. , #103 ) ;
#50 = ORIENTED_EDGE ( 'NONE', *, *, #108, .T. ) ;
#51 = AXIS2_PLACEMENT_3D ( 'NONE', #213, #55, #62 ) ;
#52 = CIRCLE ( 'NONE', #113, 1.500000000000000400 ) ;
#53 = EDGE_LOOP ( 'NONE', ( #107, #226, #93, #91 ) ) ;
#54 = EDGE_CURVE ( 'NONE', #109, #101, #117, .T. ) ;
#55 = DIRECTION ( 'NONE',  ( 0.0000000000000000000, 0.0000000000000000000, 1.000000000000000000 ) ) ;
#56 = ADVANCED_FACE ( 'NONE', ( #110 ), #204, .T. ) ;
#57 = DIRECTION ( 'NONE',  ( -1.000000000000000000, -0.0000000000000000000, -0.0000000000000000000 ) ) ;
#58 = VERTEX_POINT ( 'NONE', #135 ) ;
#59 = EDGE_CURVE ( 'NONE', #96, #101, #72, .T. ) ;
#60 =( GEOMETRIC_REPRESENTATION_CONTEXT ( 3 ) GLOBAL_UNCERTAINTY_ASSIGNED_CONTEXT ( ( #45 ) ) GLOBAL_UNIT_ASSIGNED_CONTEXT ( ( #143, #223, #18 ) ) REPRESENTATION_CONTEXT ( 'NONE', 'WORKASPACE' ) );
#61 = VERTEX_POINT ( 'NONE', #46 ) ;
#62 = DIRECTION ( 'NONE',  ( 0.0000000000000000000, -1.000000000000000000, 0.0000000000000000000 ) ) ;
#63 = PRODUCT_DEFINITION ( 'Î´Öª', '', #87, #17 ) ;
#64 = SURFACE_SIDE_STYLE ('',( #2 ) ) ;
#65 = CIRCLE ( 'NONE', #145, 1.500000000000000400 ) ;
#66 = CARTESIAN_POINT ( 'NONE',  ( 12.87971020121693400, 5.022260287298739600, 0.0000000000000000000 ) ) ;
#67 = ORIENTED_EDGE ( 'NONE', *, *, #54, .T. ) ;
#68 = DIRECTION ( 'NONE',  ( 0.0000000000000000000, -1.000000000000000000, -1.224646799147353200E-016 ) ) ;
#69 = APPLICATION_CONTEXT ( 'automotive_design' ) ;
#70 = EDGE_CURVE ( 'NONE', #128, #5, #179, .T. ) ;
#71 = VECTOR ( 'NONE', #57, 1000.000000000000000 ) ;
#72 = CIRCLE ( 'NONE', #207, 3.260000000000000700 ) ;
#73 = DIRECTION ( 'NONE',  ( 0.0000000000000000000, 0.0000000000000000000, 1.000000000000000000 ) ) ;
#74 = DIRECTION ( 'NONE',  ( 0.0000000000000000000, 1.000000000000000000, 0.0000000000000000000 ) ) ;
#75 = SPHERICAL_SURFACE ( 'NONE', #90, 3.259999999999998900 ) ;
#76 = CARTESIAN_POINT ( 'NONE',  ( 11.14852700605711000, 5.022260287298740500, -1.836970198721029400E-016 ) ) ;
#77 = AXIS2_PLACEMENT_3D ( 'NONE', #160, #22, #161 ) ;
#78 = MANIFOLD_SOLID_BREP ( 'Ðý×ª1', #118 ) ;
#79 = DIRECTION ( 'NONE',  ( 0.0000000000000000000, 0.0000000000000000000, -1.000000000000000000 ) ) ;
#80 = FACE_OUTER_BOUND ( 'NONE', #175, .T. ) ;
#81 = CARTESIAN_POINT ( 'NONE',  ( 12.87971020121693400, 6.522260287298739600, 1.500000000000000400 ) ) ;
#82 = CARTESIAN_POINT ( 'NONE',  ( 8.254118603637023100, 6.522260287298739600, 0.0000000000000000000 ) ) ;
#83 = CARTESIAN_POINT ( 'NONE',  ( 8.254118603637023100, 6.522260287298739600, 0.0000000000000000000 ) ) ;
#84 = EDGE_CURVE ( 'NONE', #144, #197, #37, .T. ) ;
#85 = ORIENTED_EDGE ( 'NONE', *, *, #112, .F. ) ;
#86 = EDGE_CURVE ( 'NONE', #144, #58, #126, .T. ) ;
#87 = PRODUCT_DEFINITION_FORMATION_WITH_SPECIFIED_SOURCE ( 'ÈÎºÎ', '', #195, .NOT_KNOWN. ) ;
#88 = SPHERICAL_SURFACE ( 'NONE', #51, 3.260000000000000700 ) ;
#89 = ORIENTED_EDGE ( 'NONE', *, *, #70, .T. ) ;
#90 = AXIS2_PLACEMENT_3D ( 'NONE', #82, #15, #180 ) ;
#91 = ORIENTED_EDGE ( 'NONE', *, *, #188, .T. ) ;
#92 = CIRCLE ( 'NONE', #77, 1.500000000000000400 ) ;
#93 = ORIENTED_EDGE ( 'NONE', *, *, #20, .T. ) ;
#94 = DIRECTION ( 'NONE',  ( 0.0000000000000000000, 0.0000000000000000000, 1.000000000000000000 ) ) ;
#95 =( GEOMETRIC_REPRESENTATION_CONTEXT ( 3 ) GLOBAL_UNCERTAINTY_ASSIGNED_CONTEXT ( ( #116 ) ) GLOBAL_UNIT_ASSIGNED_CONTEXT ( ( #156, #48, #202 ) ) REPRESENTATION_CONTEXT ( 'NONE', 'WORKASPACE' ) );
#96 = VERTEX_POINT ( 'NONE', #218 ) ;
#97 = AXIS2_PLACEMENT_3D ( 'NONE', #29, #41, #217 ) ;
#98 = AXIS2_PLACEMENT_3D ( 'NONE', #178, #147, #73 ) ;
#99 = DIRECTION ( 'NONE',  ( 0.0000000000000000000, 0.0000000000000000000, 1.000000000000000000 ) ) ;
#100 = ORIENTED_EDGE ( 'NONE', *, *, #188, .F. ) ;
#101 = VERTEX_POINT ( 'NONE', #32 ) ;
#102 = DIRECTION ( 'NONE',  ( 1.000000000000000000, 0.0000000000000000000, 0.0000000000000000000 ) ) ;
#103 = SURFACE_SIDE_STYLE ('',( #132 ) ) ;
#104 = DIRECTION ( 'NONE',  ( -1.000000000000000000, -0.0000000000000000000, -0.0000000000000000000 ) ) ;
#105 = SURFACE_STYLE_USAGE ( .BOTH. , #64 ) ;
#106 = AXIS2_PLACEMENT_3D ( 'NONE', #162, #38, #74 ) ;
#107 = ORIENTED_EDGE ( 'NONE', *, *, #86, .F. ) ;
#108 = EDGE_CURVE ( 'NONE', #128, #96, #194, .T. ) ;
#109 = VERTEX_POINT ( 'NONE', #66 ) ;
#110 = FACE_OUTER_BOUND ( 'NONE', #142, .T. ) ;
#111 = ORIENTED_EDGE ( 'NONE', *, *, #36, .T. ) ;
#112 = EDGE_CURVE ( 'NONE', #176, #109, #127, .T. ) ;
#113 = AXIS2_PLACEMENT_3D ( 'NONE', #211, #1, #40 ) ;
#114 = COLOUR_RGB ( '',1.000000000000000000, 1.000000000000000000, 1.000000000000000000 ) ;
#115 = STYLED_ITEM ( 'NONE', ( #219 ), #31 ) ;
#116 = UNCERTAINTY_MEASURE_WITH_UNIT (LENGTH_MEASURE( 1.000000000000000100E-005 ), #156, 'distance_accuracy_value', 'NONE');
#117 = CIRCLE ( 'NONE', #7, 3.260000000000000700 ) ;
#118 = CLOSED_SHELL ( 'NONE', ( #56, #6, #192, #129, #212, #39 ) ) ;
#119 = DIRECTION ( 'NONE',  ( 0.0000000000000000000, 0.0000000000000000000, 1.000000000000000000 ) ) ;
#120 = LINE ( 'NONE', #196, #71 ) ;
#121 =( NAMED_UNIT ( * ) SI_UNIT ( $, .STERADIAN. ) SOLID_ANGLE_UNIT ( ) );
#122 = ORIENTED_EDGE ( 'NONE', *, *, #210, .T. ) ;
#123 = CARTESIAN_POINT ( 'NONE',  ( 12.87971020121693400, 6.522260287298739600, 0.0000000000000000000 ) ) ;
#124 = APPLICATION_PROTOCOL_DEFINITION ( 'draft international standard', 'automotive_design', 1998, #186 ) ;
#125 = MECHANICAL_DESIGN_GEOMETRIC_PRESENTATION_REPRESENTATION (  '', ( #230 ), #25 ) ;
#126 = CIRCLE ( 'NONE', #171, 3.259999999999998900 ) ;
#127 = CIRCLE ( 'NONE', #4, 1.500000000000000400 ) ;
#128 = VERTEX_POINT ( 'NONE', #81 ) ;
#129 = ADVANCED_FACE ( 'NONE', ( #23 ), #75, .F. ) ;
#130 = SPHERICAL_SURFACE ( 'NONE', #106, 3.259999999999998900 ) ;
#131 = UNCERTAINTY_MEASURE_WITH_UNIT (LENGTH_MEASURE( 1.000000000000000100E-005 ), #152, 'distance_accuracy_value', 'NONE');
#132 = SURFACE_STYLE_FILL_AREA ( #141 ) ;
#133 = ORIENTED_EDGE ( 'NONE', *, *, #210, .F. ) ;
#134 = ORIENTED_EDGE ( 'NONE', *, *, #200, .T. ) ;
#135 = CARTESIAN_POINT ( 'NONE',  ( 11.14852700605711000, 8.022260287298740500, 0.0000000000000000000 ) ) ;
#136 = PRESENTATION_LAYER_ASSIGNMENT (  '', '', ( #115 ) ) ;
#137 = DIRECTION ( 'NONE',  ( 0.0000000000000000000, 0.0000000000000000000, 1.000000000000000000 ) ) ;
#138 = ORIENTED_EDGE ( 'NONE', *, *, #84, .F. ) ;
#139 = DIRECTION ( 'NONE',  ( 0.0000000000000000000, 1.224646799147353200E-016, -1.000000000000000000 ) ) ;
#140 = FILL_AREA_STYLE_COLOUR ( '', #209 ) ;
#141 = FILL_AREA_STYLE ('',( #221 ) ) ;
#142 = EDGE_LOOP ( 'NONE', ( #122, #184, #205, #100, #148, #50 ) ) ;
#143 =( LENGTH_UNIT ( ) NAMED_UNIT ( * ) SI_UNIT ( .MILLI., .METRE. ) );
#144 = VERTEX_POINT ( 'NONE', #170 ) ;
#145 = AXIS2_PLACEMENT_3D ( 'NONE', #27, #166, #119 ) ;
#146 = PRODUCT_RELATED_PRODUCT_CATEGORY ( 'part', '', ( #195 ) ) ;
#147 = DIRECTION ( 'NONE',  ( -1.000000000000000000, -0.0000000000000000000, -0.0000000000000000000 ) ) ;
#148 = ORIENTED_EDGE ( 'NONE', *, *, #70, .F. ) ;
#149 = DIRECTION ( 'NONE',  ( -1.000000000000000000, -0.0000000000000000000, -0.0000000000000000000 ) ) ;
#150 = DIRECTION ( 'NONE',  ( -1.000000000000000000, -0.0000000000000000000, -0.0000000000000000000 ) ) ;
#151 = DIRECTION ( 'NONE',  ( 0.0000000000000000000, 0.0000000000000000000, 1.000000000000000000 ) ) ;
#152 =( LENGTH_UNIT ( ) NAMED_UNIT ( * ) SI_UNIT ( .MILLI., .METRE. ) );
#153 = DIRECTION ( 'NONE',  ( 0.0000000000000000000, 0.0000000000000000000, 1.000000000000000000 ) ) ;
#154 = EDGE_LOOP ( 'NONE', ( #138, #24, #158, #111 ) ) ;
#155 = DIRECTION ( 'NONE',  ( 1.000000000000000000, 0.0000000000000000000, 0.0000000000000000000 ) ) ;
#156 =( LENGTH_UNIT ( ) NAMED_UNIT ( * ) SI_UNIT ( .MILLI., .METRE. ) );
#157 = FACE_OUTER_BOUND ( 'NONE', #215, .T. ) ;
#158 = ORIENTED_EDGE ( 'NONE', *, *, #193, .T. ) ;
#159 = AXIS2_PLACEMENT_3D ( 'NONE', #83, #139, #172 ) ;
#160 = CARTESIAN_POINT ( 'NONE',  ( 12.87971020121693400, 6.522260287298739600, 0.0000000000000000000 ) ) ;
#161 = DIRECTION ( 'NONE',  ( 0.0000000000000000000, 0.0000000000000000000, 1.000000000000000000 ) ) ;
#162 = CARTESIAN_POINT ( 'NONE',  ( 8.254118603637023100, 6.522260287298739600, 0.0000000000000000000 ) ) ;
#163 = AXIS2_PLACEMENT_3D ( 'NONE', #8, #150, #43 ) ;
#164 = CARTESIAN_POINT ( 'NONE',  ( 11.14852700605711000, 6.522260287298739600, 1.500000000000000400 ) ) ;
#165 = CIRCLE ( 'NONE', #227, 1.500000000000000400 ) ;
#166 = DIRECTION ( 'NONE',  ( -1.000000000000000000, -0.0000000000000000000, -0.0000000000000000000 ) ) ;
#167 = CIRCLE ( 'NONE', #98, 1.500000000000000400 ) ;
#168 = DIRECTION ( 'NONE',  ( 0.0000000000000000000, -1.224646799147353200E-016, 1.000000000000000000 ) ) ;
#169 = ORIENTED_EDGE ( 'NONE', *, *, #177, .F. ) ;
#170 = CARTESIAN_POINT ( 'NONE',  ( 11.51411860363702300, 6.522260287298739600, 0.0000000000000000000 ) ) ;
#171 = AXIS2_PLACEMENT_3D ( 'NONE', #224, #153, #155 ) ;
#172 = DIRECTION ( 'NONE',  ( 0.0000000000000000000, 1.000000000000000000, 1.224646799147353700E-016 ) ) ;
#173 = PRODUCT_DEFINITION_SHAPE ( 'NONE', 'NONE',  #63 ) ;
#174 = PRESENTATION_STYLE_ASSIGNMENT (( #49 ) ) ;
#175 = EDGE_LOOP ( 'NONE', ( #133, #189, #10, #85 ) ) ;
#176 = VERTEX_POINT ( 'NONE', #21 ) ;
#177 = EDGE_CURVE ( 'NONE', #176, #61, #120, .T. ) ;
#178 = CARTESIAN_POINT ( 'NONE',  ( 11.14852700605711000, 6.522260287298739600, 0.0000000000000000000 ) ) ;
#179 = LINE ( 'NONE', #206, #28 ) ;
#180 = DIRECTION ( 'NONE',  ( 0.0000000000000000000, 1.000000000000000000, 0.0000000000000000000 ) ) ;
#181 = AXIS2_PLACEMENT_3D ( 'NONE', #182, #99, #183 ) ;
#182 = CARTESIAN_POINT ( 'NONE',  ( 15.77411860363702300, 6.522260287298739600, 0.0000000000000000000 ) ) ;
#183 = DIRECTION ( 'NONE',  ( 0.0000000000000000000, -1.000000000000000000, 0.0000000000000000000 ) ) ;
#184 = ORIENTED_EDGE ( 'NONE', *, *, #177, .T. ) ;
#185 = CARTESIAN_POINT ( 'NONE',  ( 0.0000000000000000000, 0.0000000000000000000, 0.0000000000000000000 ) ) ;
#186 = APPLICATION_CONTEXT ( 'automotive_design' ) ;
#187 = CARTESIAN_POINT ( 'NONE',  ( 12.87971020121693400, 6.522260287298739600, 0.0000000000000000000 ) ) ;
#188 = EDGE_CURVE ( 'NONE', #5, #58, #35, .T. ) ;
#189 = ORIENTED_EDGE ( 'NONE', *, *, #59, .T. ) ;
#190 = FACE_OUTER_BOUND ( 'NONE', #53, .T. ) ;
#191 = EDGE_LOOP ( 'NONE', ( #11, #198, #16, #67 ) ) ;
#192 = ADVANCED_FACE ( 'NONE', ( #190 ), #130, .F. ) ;
#193 = EDGE_CURVE ( 'NONE', #58, #61, #167, .T. ) ;
#194 = CIRCLE ( 'NONE', #222, 1.500000000000000400 ) ;
#195 = PRODUCT ( '130002', '130002', '', ( #33 ) ) ;
#196 = CARTESIAN_POINT ( 'NONE',  ( 10.61246527853420600, 6.522260287298739600, -1.500000000000000400 ) ) ;
#197 = VERTEX_POINT ( 'NONE', #76 ) ;
#198 = ORIENTED_EDGE ( 'NONE', *, *, #108, .F. ) ;
#199 = CARTESIAN_POINT ( 'NONE',  ( 11.14852700605711000, 6.522260287298739600, 0.0000000000000000000 ) ) ;
#200 = EDGE_CURVE ( 'NONE', #109, #128, #92, .T. ) ;
#201 = SHAPE_DEFINITION_REPRESENTATION ( #173, #31 ) ;
#202 =( NAMED_UNIT ( * ) SI_UNIT ( $, .STERADIAN. ) SOLID_ANGLE_UNIT ( ) );
#203 = DIRECTION ( 'NONE',  ( -1.000000000000000000, -0.0000000000000000000, -0.0000000000000000000 ) ) ;
#204 = CYLINDRICAL_SURFACE ( 'NONE', #163, 1.500000000000000400 ) ;
#205 = ORIENTED_EDGE ( 'NONE', *, *, #193, .F. ) ;
#206 = CARTESIAN_POINT ( 'NONE',  ( 10.61246527853420600, 6.522260287298739600, 1.500000000000000400 ) ) ;
#207 = AXIS2_PLACEMENT_3D ( 'NONE', #34, #168, #68 ) ;
#208 = DIRECTION ( 'NONE',  ( -1.000000000000000000, -0.0000000000000000000, -0.0000000000000000000 ) ) ;
#209 = COLOUR_RGB ( '',1.000000000000000000, 1.000000000000000000, 1.000000000000000000 ) ;
#210 = EDGE_CURVE ( 'NONE', #96, #176, #52, .T. ) ;
#211 = CARTESIAN_POINT ( 'NONE',  ( 12.87971020121693400, 6.522260287298739600, 0.0000000000000000000 ) ) ;
#212 = ADVANCED_FACE ( 'NONE', ( #216 ), #88, .F. ) ;
#213 = CARTESIAN_POINT ( 'NONE',  ( 15.77411860363702300, 6.522260287298739600, 0.0000000000000000000 ) ) ;
#214 = CYLINDRICAL_SURFACE ( 'NONE', #97, 1.500000000000000400 ) ;
#215 = EDGE_LOOP ( 'NONE', ( #169, #231, #134, #89, #220, #229 ) ) ;
#216 = FACE_OUTER_BOUND ( 'NONE', #191, .T. ) ;
#217 = DIRECTION ( 'NONE',  ( 0.0000000000000000000, 0.0000000000000000000, 1.000000000000000000 ) ) ;
#218 = CARTESIAN_POINT ( 'NONE',  ( 12.87971020121693400, 8.022260287298740500, 1.836970198721029900E-016 ) ) ;
#219 = PRESENTATION_STYLE_ASSIGNMENT (( #105 ) ) ;
#220 = ORIENTED_EDGE ( 'NONE', *, *, #20, .F. ) ;
#221 = FILL_AREA_STYLE_COLOUR ( '', #114 ) ;
#222 = AXIS2_PLACEMENT_3D ( 'NONE', #123, #203, #13 ) ;
#223 =( NAMED_UNIT ( * ) PLANE_ANGLE_UNIT ( ) SI_UNIT ( $, .RADIAN. ) );
#224 = CARTESIAN_POINT ( 'NONE',  ( 8.254118603637023100, 6.522260287298739600, 0.0000000000000000000 ) ) ;
#225 =( NAMED_UNIT ( * ) PLANE_ANGLE_UNIT ( ) SI_UNIT ( $, .RADIAN. ) );
#226 = ORIENTED_EDGE ( 'NONE', *, *, #84, .T. ) ;
#227 = AXIS2_PLACEMENT_3D ( 'NONE', #26, #149, #151 ) ;
#228 = AXIS2_PLACEMENT_3D ( 'NONE', #199, #232, #3 ) ;
#229 = ORIENTED_EDGE ( 'NONE', *, *, #36, .F. ) ;
#230 = STYLED_ITEM ( 'NONE', ( #174 ), #78 ) ;
#231 = ORIENTED_EDGE ( 'NONE', *, *, #112, .T. ) ;
#232 = DIRECTION ( 'NONE',  ( -1.000000000000000000, -0.0000000000000000000, -0.0000000000000000000 ) ) ;
ENDSEC;
END-ISO-10303-21;
