ISO-10303-21;
HEADER;
FILE_DESCRIPTION (( 'STEP AP214' ),
    '1' );
FILE_NAME ('130012.STEP',
    '2019-07-01T01:42:28',
    ( '' ),
    ( '' ),
    'SwSTEP 2.0',
    'SolidWorks 2016',
    '' );
FILE_SCHEMA (( 'AUTOMOTIVE_DESIGN' ));
ENDSEC;

DATA;
#1 = ORIENTED_EDGE ( 'NONE', *, *, #125, .T. ) ;
#2 = AXIS2_PLACEMENT_3D ( 'NONE', #180, #148, #149 ) ;
#3 = DIRECTION ( 'NONE',  ( -1.000000000000000000, 0.0000000000000000000, 0.0000000000000000000 ) ) ;
#4 = EDGE_CURVE ( 'NONE', #33, #93, #16, .T. ) ;
#5 = ORIENTED_EDGE ( 'NONE', *, *, #137, .F. ) ;
#6 = ORIENTED_EDGE ( 'NONE', *, *, #125, .F. ) ;
#7 = FACE_OUTER_BOUND ( 'NONE', #190, .T. ) ;
#8 = EDGE_CURVE ( 'NONE', #138, #30, #99, .T. ) ;
#9 = PRODUCT_DEFINITION_SHAPE ( 'NONE', 'NONE',  #174 ) ;
#10 = ORIENTED_EDGE ( 'NONE', *, *, #226, .F. ) ;
#11 = SPHERICAL_SURFACE ( 'NONE', #150, 52.14999999999999900 ) ;
#12 = ADVANCED_FACE ( 'NONE', ( #195 ), #152, .T. ) ;
#13 = FACE_OUTER_BOUND ( 'NONE', #82, .T. ) ;
#14 = DIRECTION ( 'NONE',  ( 0.0000000000000000000, 1.000000000000000000, 1.224646799147353500E-016 ) ) ;
#15 = SURFACE_SIDE_STYLE ('',( #155 ) ) ;
#16 = CIRCLE ( 'NONE', #202, 52.14999999999999900 ) ;
#17 = CARTESIAN_POINT ( 'NONE',  ( 106.1246527853420500, 65.22260287298739500, 24.99999999999999300 ) ) ;
#18 =( NAMED_UNIT ( * ) SI_UNIT ( $, .STERADIAN. ) SOLID_ANGLE_UNIT ( ) );
#19 = CARTESIAN_POINT ( 'NONE',  ( 127.9578311625103900, 65.22260287298739500, 0.0000000000000000000 ) ) ;
#20 = EDGE_LOOP ( 'NONE', ( #139, #42, #47, #68, #119, #26 ) ) ;
#21 = APPLICATION_CONTEXT ( 'automotive_design' ) ;
#22 = DIRECTION ( 'NONE',  ( 0.0000000000000000000, 0.0000000000000000000, 1.000000000000000000 ) ) ;
#23 = ORIENTED_EDGE ( 'NONE', *, *, #81, .F. ) ;
#24 = COLOUR_RGB ( '',1.000000000000000000, 1.000000000000000000, 1.000000000000000000 ) ;
#25 = VERTEX_POINT ( 'NONE', #102 ) ;
#26 = ORIENTED_EDGE ( 'NONE', *, *, #226, .T. ) ;
#27 = AXIS2_PLACEMENT_3D ( 'NONE', #84, #208, #188 ) ;
#28 = CARTESIAN_POINT ( 'NONE',  ( 127.9578311625103900, 90.22260287298739500, 3.061616997868383000E-015 ) ) ;
#29 = CARTESIAN_POINT ( 'NONE',  ( 121.5748771672505200, 65.22260287298739500, 0.0000000000000000000 ) ) ;
#30 = VERTEX_POINT ( 'NONE', #121 ) ;
#31 = DIRECTION ( 'NONE',  ( 0.0000000000000000000, 0.0000000000000000000, 1.000000000000000000 ) ) ;
#32 = DIRECTION ( 'NONE',  ( 0.0000000000000000000, 0.0000000000000000000, -1.000000000000000000 ) ) ;
#33 = VERTEX_POINT ( 'NONE', #28 ) ;
#34 = AXIS2_PLACEMENT_3D ( 'NONE', #156, #159, #223 ) ;
#35 = DIRECTION ( 'NONE',  ( -1.000000000000000000, -0.0000000000000000000, -0.0000000000000000000 ) ) ;
#36 =( LENGTH_UNIT ( ) NAMED_UNIT ( * ) SI_UNIT ( .MILLI., .METRE. ) );
#37 = CARTESIAN_POINT ( 'NONE',  ( 127.9578311625103900, 65.22260287298739500, 0.0000000000000000000 ) ) ;
#38 =( NAMED_UNIT ( * ) PLANE_ANGLE_UNIT ( ) SI_UNIT ( $, .RADIAN. ) );
#39 = MECHANICAL_DESIGN_GEOMETRIC_PRESENTATION_REPRESENTATION (  '', ( #46 ), #76 ) ;
#40 = CARTESIAN_POINT ( 'NONE',  ( 112.1919231719906400, 65.22260287298739500, 0.0000000000000000000 ) ) ;
#41 = SURFACE_STYLE_USAGE ( .BOTH. , #198 ) ;
#42 = ORIENTED_EDGE ( 'NONE', *, *, #183, .T. ) ;
#43 = UNCERTAINTY_MEASURE_WITH_UNIT (LENGTH_MEASURE( 1.000000000000000100E-005 ), #53, 'distance_accuracy_value', 'NONE');
#44 = ORIENTED_EDGE ( 'NONE', *, *, #183, .F. ) ;
#45 = VECTOR ( 'NONE', #170, 1000.000000000000000 ) ;
#46 = STYLED_ITEM ( 'NONE', ( #207 ), #116 ) ;
#47 = ORIENTED_EDGE ( 'NONE', *, *, #86, .F. ) ;
#48 = CIRCLE ( 'NONE', #205, 52.14999999999999900 ) ;
#49 = CARTESIAN_POINT ( 'NONE',  ( 127.9578311625103900, 65.22260287298739500, -24.99999999999999300 ) ) ;
#50 = DIRECTION ( 'NONE',  ( 0.0000000000000000000, 1.000000000000000000, 0.0000000000000000000 ) ) ;
#51 = CYLINDRICAL_SURFACE ( 'NONE', #34, 24.99999999999999300 ) ;
#52 = DIRECTION ( 'NONE',  ( -1.000000000000000000, -0.0000000000000000000, -0.0000000000000000000 ) ) ;
#53 =( LENGTH_UNIT ( ) NAMED_UNIT ( * ) SI_UNIT ( .MILLI., .METRE. ) );
#54 = PRODUCT_CONTEXT ( 'NONE', #21, 'mechanical' ) ;
#55 = DIRECTION ( 'NONE',  ( -1.000000000000000000, -0.0000000000000000000, -0.0000000000000000000 ) ) ;
#56 = ORIENTED_EDGE ( 'NONE', *, *, #135, .T. ) ;
#57 = SPHERICAL_SURFACE ( 'NONE', #171, 52.14999999999999900 ) ;
#58 = ORIENTED_EDGE ( 'NONE', *, *, #185, .F. ) ;
#59 = PRESENTATION_LAYER_ASSIGNMENT (  '', '', ( #46 ) ) ;
#60 = VERTEX_POINT ( 'NONE', #49 ) ;
#61 = CARTESIAN_POINT ( 'NONE',  ( 118.5748771672505200, 65.22260287298739500, 0.0000000000000000000 ) ) ;
#62 = VERTEX_POINT ( 'NONE', #61 ) ;
#63 = FACE_OUTER_BOUND ( 'NONE', #97, .T. ) ;
#64 = PRODUCT_RELATED_PRODUCT_CATEGORY ( 'part', '', ( #225 ) ) ;
#65 = DIRECTION ( 'NONE',  ( 0.0000000000000000000, -1.000000000000000000, -1.224646799147353500E-016 ) ) ;
#66 = ADVANCED_FACE ( 'NONE', ( #204 ), #51, .T. ) ;
#67 = CARTESIAN_POINT ( 'NONE',  ( 127.9578311625103900, 65.22260287298739500, 24.99999999999999300 ) ) ;
#68 = ORIENTED_EDGE ( 'NONE', *, *, #135, .F. ) ;
#69 = CARTESIAN_POINT ( 'NONE',  ( 66.42487716725051400, 65.22260287298739500, 0.0000000000000000000 ) ) ;
#70 = CIRCLE ( 'NONE', #210, 24.99999999999999300 ) ;
#71 =( GEOMETRIC_REPRESENTATION_CONTEXT ( 3 ) GLOBAL_UNCERTAINTY_ASSIGNED_CONTEXT ( ( #43 ) ) GLOBAL_UNIT_ASSIGNED_CONTEXT ( ( #53, #165, #168 ) ) REPRESENTATION_CONTEXT ( 'NONE', 'WORKASPACE' ) );
#72 = CARTESIAN_POINT ( 'NONE',  ( 106.1246527853420500, 65.22260287298739500, -24.99999999999999300 ) ) ;
#73 = DIRECTION ( 'NONE',  ( 0.0000000000000000000, 0.0000000000000000000, 1.000000000000000000 ) ) ;
#74 = FILL_AREA_STYLE ('',( #112 ) ) ;
#75 = APPLICATION_PROTOCOL_DEFINITION ( 'draft international standard', 'automotive_design', 1998, #95 ) ;
#76 =( GEOMETRIC_REPRESENTATION_CONTEXT ( 3 ) GLOBAL_UNCERTAINTY_ASSIGNED_CONTEXT ( ( #203 ) ) GLOBAL_UNIT_ASSIGNED_CONTEXT ( ( #181, #38, #117 ) ) REPRESENTATION_CONTEXT ( 'NONE', 'WORKASPACE' ) );
#77 = ORIENTED_EDGE ( 'NONE', *, *, #213, .T. ) ;
#78 = LINE ( 'NONE', #17, #45 ) ;
#79 = PRODUCT_DEFINITION_CONTEXT ( 'detailed design', #95, 'design' ) ;
#80 = AXIS2_PLACEMENT_3D ( 'NONE', #193, #32, #197 ) ;
#81 = EDGE_CURVE ( 'NONE', #33, #60, #103, .T. ) ;
#82 = EDGE_LOOP ( 'NONE', ( #186, #124, #206, #56 ) ) ;
#83 = CIRCLE ( 'NONE', #160, 24.99999999999999300 ) ;
#84 = CARTESIAN_POINT ( 'NONE',  ( 112.1919231719906400, 65.22260287298739500, 0.0000000000000000000 ) ) ;
#85 = AXIS2_PLACEMENT_3D ( 'NONE', #199, #232, #133 ) ;
#86 = EDGE_CURVE ( 'NONE', #209, #219, #108, .T. ) ;
#87 = DIRECTION ( 'NONE',  ( 0.0000000000000000000, -1.224646799147353200E-016, 1.000000000000000000 ) ) ;
#88 = MANIFOLD_SOLID_BREP ( 'Ðý×ª1', #158 ) ;
#89 = CARTESIAN_POINT ( 'NONE',  ( 66.42487716725051400, 65.22260287298739500, 0.0000000000000000000 ) ) ;
#90 = PRODUCT_DEFINITION_FORMATION_WITH_SPECIFIED_SOURCE ( 'ÈÎºÎ', '', #225, .NOT_KNOWN. ) ;
#91 = CARTESIAN_POINT ( 'NONE',  ( 173.7248771672505300, 65.22260287298739500, 0.0000000000000000000 ) ) ;
#92 = DIRECTION ( 'NONE',  ( 1.000000000000000000, 0.0000000000000000000, 0.0000000000000000000 ) ) ;
#93 = VERTEX_POINT ( 'NONE', #29 ) ;
#94 = APPLICATION_PROTOCOL_DEFINITION ( 'draft international standard', 'automotive_design', 1998, #21 ) ;
#95 = APPLICATION_CONTEXT ( 'automotive_design' ) ;
#96 = AXIS2_PLACEMENT_3D ( 'NONE', #111, #144, #142 ) ;
#97 = EDGE_LOOP ( 'NONE', ( #131, #10, #5, #172 ) ) ;
#98 = SPHERICAL_SURFACE ( 'NONE', #80, 52.14999999999999900 ) ;
#99 = CIRCLE ( 'NONE', #27, 24.99999999999999300 ) ;
#100 = ORIENTED_EDGE ( 'NONE', *, *, #141, .F. ) ;
#101 = FACE_OUTER_BOUND ( 'NONE', #184, .T. ) ;
#102 = CARTESIAN_POINT ( 'NONE',  ( 127.9578311625103900, 40.22260287298739500, 0.0000000000000000000 ) ) ;
#103 = CIRCLE ( 'NONE', #96, 24.99999999999999300 ) ;
#104 = CARTESIAN_POINT ( 'NONE',  ( 106.1246527853420500, 65.22260287298739500, 0.0000000000000000000 ) ) ;
#105 = PRESENTATION_STYLE_ASSIGNMENT (( #163 ) ) ;
#106 = EDGE_CURVE ( 'NONE', #62, #209, #48, .T. ) ;
#107 = DIRECTION ( 'NONE',  ( 0.0000000000000000000, 1.224646799147353200E-016, -1.000000000000000000 ) ) ;
#108 = CIRCLE ( 'NONE', #189, 24.99999999999999300 ) ;
#109 = CIRCLE ( 'NONE', #147, 24.99999999999999300 ) ;
#110 = ADVANCED_FACE ( 'NONE', ( #63 ), #11, .F. ) ;
#111 = CARTESIAN_POINT ( 'NONE',  ( 127.9578311625103900, 65.22260287298739500, 0.0000000000000000000 ) ) ;
#112 = FILL_AREA_STYLE_COLOUR ( '', #24 ) ;
#113 = ORIENTED_EDGE ( 'NONE', *, *, #213, .F. ) ;
#114 = CIRCLE ( 'NONE', #157, 52.14999999999999900 ) ;
#115 = DIRECTION ( 'NONE',  ( -1.000000000000000000, -0.0000000000000000000, -0.0000000000000000000 ) ) ;
#116 = ADVANCED_BREP_SHAPE_REPRESENTATION ( '130012', ( #88, #85 ), #71 ) ;
#117 =( NAMED_UNIT ( * ) SI_UNIT ( $, .STERADIAN. ) SOLID_ANGLE_UNIT ( ) );
#118 = COLOUR_RGB ( '',1.000000000000000000, 1.000000000000000000, 1.000000000000000000 ) ;
#119 = ORIENTED_EDGE ( 'NONE', *, *, #218, .F. ) ;
#120 = LINE ( 'NONE', #72, #200 ) ;
#121 = CARTESIAN_POINT ( 'NONE',  ( 112.1919231719906400, 65.22260287298739500, 24.99999999999999300 ) ) ;
#122 =( GEOMETRIC_REPRESENTATION_CONTEXT ( 3 ) GLOBAL_UNCERTAINTY_ASSIGNED_CONTEXT ( ( #187 ) ) GLOBAL_UNIT_ASSIGNED_CONTEXT ( ( #36, #146, #18 ) ) REPRESENTATION_CONTEXT ( 'NONE', 'WORKASPACE' ) );
#123 = FILL_AREA_STYLE_COLOUR ( '', #118 ) ;
#124 = ORIENTED_EDGE ( 'NONE', *, *, #141, .T. ) ;
#125 = EDGE_CURVE ( 'NONE', #60, #25, #109, .T. ) ;
#126 = AXIS2_PLACEMENT_3D ( 'NONE', #40, #115, #22 ) ;
#127 = EDGE_LOOP ( 'NONE', ( #44, #1, #162, #154, #134, #113 ) ) ;
#128 = DIRECTION ( 'NONE',  ( 0.0000000000000000000, 0.0000000000000000000, 1.000000000000000000 ) ) ;
#129 = CARTESIAN_POINT ( 'NONE',  ( 173.7248771672505300, 65.22260287298739500, 0.0000000000000000000 ) ) ;
#130 = DIRECTION ( 'NONE',  ( -1.000000000000000000, -0.0000000000000000000, -0.0000000000000000000 ) ) ;
#131 = ORIENTED_EDGE ( 'NONE', *, *, #4, .F. ) ;
#132 = DIRECTION ( 'NONE',  ( 0.0000000000000000000, 0.0000000000000000000, -1.000000000000000000 ) ) ;
#133 = DIRECTION ( 'NONE',  ( 1.000000000000000000, 0.0000000000000000000, 0.0000000000000000000 ) ) ;
#134 = ORIENTED_EDGE ( 'NONE', *, *, #8, .F. ) ;
#135 = EDGE_CURVE ( 'NONE', #30, #209, #178, .T. ) ;
#136 = STYLED_ITEM ( 'NONE', ( #105 ), #88 ) ;
#137 = EDGE_CURVE ( 'NONE', #25, #166, #83, .T. ) ;
#138 = VERTEX_POINT ( 'NONE', #227 ) ;
#139 = ORIENTED_EDGE ( 'NONE', *, *, #81, .T. ) ;
#140 = DIRECTION ( 'NONE',  ( 0.0000000000000000000, 0.0000000000000000000, -1.000000000000000000 ) ) ;
#141 = EDGE_CURVE ( 'NONE', #62, #138, #114, .T. ) ;
#142 = DIRECTION ( 'NONE',  ( 0.0000000000000000000, 0.0000000000000000000, 1.000000000000000000 ) ) ;
#143 = ADVANCED_FACE ( 'NONE', ( #7 ), #57, .F. ) ;
#144 = DIRECTION ( 'NONE',  ( -1.000000000000000000, -0.0000000000000000000, -0.0000000000000000000 ) ) ;
#145 = ORIENTED_EDGE ( 'NONE', *, *, #106, .T. ) ;
#146 =( NAMED_UNIT ( * ) PLANE_ANGLE_UNIT ( ) SI_UNIT ( $, .RADIAN. ) );
#147 = AXIS2_PLACEMENT_3D ( 'NONE', #37, #52, #179 ) ;
#148 = DIRECTION ( 'NONE',  ( 0.0000000000000000000, 0.0000000000000000000, 1.000000000000000000 ) ) ;
#149 = DIRECTION ( 'NONE',  ( 0.0000000000000000000, -1.000000000000000000, 0.0000000000000000000 ) ) ;
#150 = AXIS2_PLACEMENT_3D ( 'NONE', #129, #196, #230 ) ;
#151 = DIRECTION ( 'NONE',  ( 0.0000000000000000000, 0.0000000000000000000, 1.000000000000000000 ) ) ;
#152 = CYLINDRICAL_SURFACE ( 'NONE', #220, 24.99999999999999300 ) ;
#153 = SURFACE_STYLE_FILL_AREA ( #74 ) ;
#154 = ORIENTED_EDGE ( 'NONE', *, *, #218, .T. ) ;
#155 = SURFACE_STYLE_FILL_AREA ( #164 ) ;
#156 = CARTESIAN_POINT ( 'NONE',  ( 106.1246527853420500, 65.22260287298739500, 0.0000000000000000000 ) ) ;
#157 = AXIS2_PLACEMENT_3D ( 'NONE', #211, #107, #14 ) ;
#158 = CLOSED_SHELL ( 'NONE', ( #175, #12, #229, #110, #66, #143 ) ) ;
#159 = DIRECTION ( 'NONE',  ( -1.000000000000000000, -0.0000000000000000000, -0.0000000000000000000 ) ) ;
#160 = AXIS2_PLACEMENT_3D ( 'NONE', #192, #35, #194 ) ;
#161 = DIRECTION ( 'NONE',  ( -1.000000000000000000, -0.0000000000000000000, -0.0000000000000000000 ) ) ;
#162 = ORIENTED_EDGE ( 'NONE', *, *, #137, .T. ) ;
#163 = SURFACE_STYLE_USAGE ( .BOTH. , #15 ) ;
#164 = FILL_AREA_STYLE ('',( #123 ) ) ;
#165 =( NAMED_UNIT ( * ) PLANE_ANGLE_UNIT ( ) SI_UNIT ( $, .RADIAN. ) );
#166 = VERTEX_POINT ( 'NONE', #67 ) ;
#167 = SPHERICAL_SURFACE ( 'NONE', #2, 52.14999999999999900 ) ;
#168 =( NAMED_UNIT ( * ) SI_UNIT ( $, .STERADIAN. ) SOLID_ANGLE_UNIT ( ) );
#169 = MECHANICAL_DESIGN_GEOMETRIC_PRESENTATION_REPRESENTATION (  '', ( #136 ), #122 ) ;
#170 = DIRECTION ( 'NONE',  ( -1.000000000000000000, -0.0000000000000000000, -0.0000000000000000000 ) ) ;
#171 = AXIS2_PLACEMENT_3D ( 'NONE', #89, #140, #50 ) ;
#172 = ORIENTED_EDGE ( 'NONE', *, *, #185, .T. ) ;
#173 = CIRCLE ( 'NONE', #201, 52.14999999999999900 ) ;
#174 = PRODUCT_DEFINITION ( 'Î´Öª', '', #90, #79 ) ;
#175 = ADVANCED_FACE ( 'NONE', ( #13 ), #98, .F. ) ;
#176 = PRESENTATION_LAYER_ASSIGNMENT (  '', '', ( #136 ) ) ;
#177 = DIRECTION ( 'NONE',  ( -1.000000000000000000, -0.0000000000000000000, -0.0000000000000000000 ) ) ;
#178 = CIRCLE ( 'NONE', #221, 24.99999999999999300 ) ;
#179 = DIRECTION ( 'NONE',  ( 0.0000000000000000000, 0.0000000000000000000, 1.000000000000000000 ) ) ;
#180 = CARTESIAN_POINT ( 'NONE',  ( 173.7248771672505300, 65.22260287298739500, 0.0000000000000000000 ) ) ;
#181 =( LENGTH_UNIT ( ) NAMED_UNIT ( * ) SI_UNIT ( .MILLI., .METRE. ) );
#182 = ORIENTED_EDGE ( 'NONE', *, *, #86, .T. ) ;
#183 = EDGE_CURVE ( 'NONE', #60, #219, #120, .T. ) ;
#184 = EDGE_LOOP ( 'NONE', ( #23, #212, #58, #6 ) ) ;
#185 = EDGE_CURVE ( 'NONE', #25, #93, #173, .T. ) ;
#186 = ORIENTED_EDGE ( 'NONE', *, *, #106, .F. ) ;
#187 = UNCERTAINTY_MEASURE_WITH_UNIT (LENGTH_MEASURE( 1.000000000000000100E-005 ), #36, 'distance_accuracy_value', 'NONE');
#188 = DIRECTION ( 'NONE',  ( 0.0000000000000000000, 0.0000000000000000000, 1.000000000000000000 ) ) ;
#189 = AXIS2_PLACEMENT_3D ( 'NONE', #217, #130, #231 ) ;
#190 = EDGE_LOOP ( 'NONE', ( #100, #145, #182, #77 ) ) ;
#191 = CIRCLE ( 'NONE', #126, 24.99999999999999300 ) ;
#192 = CARTESIAN_POINT ( 'NONE',  ( 127.9578311625103900, 65.22260287298739500, 0.0000000000000000000 ) ) ;
#193 = CARTESIAN_POINT ( 'NONE',  ( 66.42487716725051400, 65.22260287298739500, 0.0000000000000000000 ) ) ;
#194 = DIRECTION ( 'NONE',  ( 0.0000000000000000000, 0.0000000000000000000, 1.000000000000000000 ) ) ;
#195 = FACE_OUTER_BOUND ( 'NONE', #20, .T. ) ;
#196 = DIRECTION ( 'NONE',  ( 0.0000000000000000000, 0.0000000000000000000, 1.000000000000000000 ) ) ;
#197 = DIRECTION ( 'NONE',  ( 0.0000000000000000000, 1.000000000000000000, 0.0000000000000000000 ) ) ;
#198 = SURFACE_SIDE_STYLE ('',( #153 ) ) ;
#199 = CARTESIAN_POINT ( 'NONE',  ( 0.0000000000000000000, 0.0000000000000000000, 0.0000000000000000000 ) ) ;
#200 = VECTOR ( 'NONE', #177, 1000.000000000000000 ) ;
#201 = AXIS2_PLACEMENT_3D ( 'NONE', #91, #132, #3 ) ;
#202 = AXIS2_PLACEMENT_3D ( 'NONE', #222, #87, #65 ) ;
#203 = UNCERTAINTY_MEASURE_WITH_UNIT (LENGTH_MEASURE( 1.000000000000000100E-005 ), #181, 'distance_accuracy_value', 'NONE');
#204 = FACE_OUTER_BOUND ( 'NONE', #127, .T. ) ;
#205 = AXIS2_PLACEMENT_3D ( 'NONE', #69, #73, #92 ) ;
#206 = ORIENTED_EDGE ( 'NONE', *, *, #8, .T. ) ;
#207 = PRESENTATION_STYLE_ASSIGNMENT (( #41 ) ) ;
#208 = DIRECTION ( 'NONE',  ( -1.000000000000000000, -0.0000000000000000000, -0.0000000000000000000 ) ) ;
#209 = VERTEX_POINT ( 'NONE', #228 ) ;
#210 = AXIS2_PLACEMENT_3D ( 'NONE', #19, #55, #151 ) ;
#211 = CARTESIAN_POINT ( 'NONE',  ( 66.42487716725051400, 65.22260287298739500, 0.0000000000000000000 ) ) ;
#212 = ORIENTED_EDGE ( 'NONE', *, *, #4, .T. ) ;
#213 = EDGE_CURVE ( 'NONE', #219, #138, #191, .T. ) ;
#214 = SHAPE_DEFINITION_REPRESENTATION ( #9, #116 ) ;
#215 = CARTESIAN_POINT ( 'NONE',  ( 112.1919231719906400, 65.22260287298739500, -24.99999999999999300 ) ) ;
#216 = CARTESIAN_POINT ( 'NONE',  ( 112.1919231719906400, 65.22260287298739500, 0.0000000000000000000 ) ) ;
#217 = CARTESIAN_POINT ( 'NONE',  ( 112.1919231719906400, 65.22260287298739500, 0.0000000000000000000 ) ) ;
#218 = EDGE_CURVE ( 'NONE', #166, #30, #78, .T. ) ;
#219 = VERTEX_POINT ( 'NONE', #215 ) ;
#220 = AXIS2_PLACEMENT_3D ( 'NONE', #104, #224, #31 ) ;
#221 = AXIS2_PLACEMENT_3D ( 'NONE', #216, #161, #128 ) ;
#222 = CARTESIAN_POINT ( 'NONE',  ( 173.7248771672505300, 65.22260287298739500, 0.0000000000000000000 ) ) ;
#223 = DIRECTION ( 'NONE',  ( 0.0000000000000000000, 0.0000000000000000000, 1.000000000000000000 ) ) ;
#224 = DIRECTION ( 'NONE',  ( -1.000000000000000000, -0.0000000000000000000, -0.0000000000000000000 ) ) ;
#225 = PRODUCT ( '130012', '130012', '', ( #54 ) ) ;
#226 = EDGE_CURVE ( 'NONE', #166, #33, #70, .T. ) ;
#227 = CARTESIAN_POINT ( 'NONE',  ( 112.1919231719906400, 40.22260287298739500, -3.061616997868383000E-015 ) ) ;
#228 = CARTESIAN_POINT ( 'NONE',  ( 112.1919231719906400, 90.22260287298739500, 0.0000000000000000000 ) ) ;
#229 = ADVANCED_FACE ( 'NONE', ( #101 ), #167, .F. ) ;
#230 = DIRECTION ( 'NONE',  ( 0.0000000000000000000, -1.000000000000000000, 0.0000000000000000000 ) ) ;
#231 = DIRECTION ( 'NONE',  ( 0.0000000000000000000, 0.0000000000000000000, 1.000000000000000000 ) ) ;
#232 = DIRECTION ( 'NONE',  ( 0.0000000000000000000, 0.0000000000000000000, 1.000000000000000000 ) ) ;
ENDSEC;
END-ISO-10303-21;
