ISO-10303-21;
HEADER;
FILE_DESCRIPTION (( 'STEP AP214' ),
    '1' );
FILE_NAME ('130079.STEP',
    '2019-07-03T05:56:27',
    ( '' ),
    ( '' ),
    'SwSTEP 2.0',
    'SolidWorks 2016',
    '' );
FILE_SCHEMA (( 'AUTOMOTIVE_DESIGN' ));
ENDSEC;

DATA;
#1 = EDGE_CURVE ( 'NONE', #106, #33, #52, .T. ) ;
#2 = CIRCLE ( 'NONE', #175, 140.8000000000000100 ) ;
#3 = UNCERTAINTY_MEASURE_WITH_UNIT (LENGTH_MEASURE( 1.000000000000000100E-005 ), #31, 'distance_accuracy_value', 'NONE');
#4 = ORIENTED_EDGE ( 'NONE', *, *, #82, .F. ) ;
#5 = DIRECTION ( 'NONE',  ( -0.0000000000000000000, 0.0000000000000000000, 1.000000000000000000 ) ) ;
#6 = AXIS2_PLACEMENT_3D ( 'NONE', #147, #131, #113 ) ;
#7 = DIRECTION ( 'NONE',  ( -1.000000000000000000, -4.877362175853829600E-016, -0.0000000000000000000 ) ) ;
#8 = DIRECTION ( 'NONE',  ( 0.0000000000000000000, -1.000000000000000000, -1.224646799147353200E-016 ) ) ;
#9 = DIRECTION ( 'NONE',  ( 3.942553354492743000E-016, -1.000000000000000000, 0.0000000000000000000 ) ) ;
#10 = PRODUCT_CONTEXT ( 'NONE', #151, 'mechanical' ) ;
#11 = AXIS2_PLACEMENT_3D ( 'NONE', #24, #184, #44 ) ;
#12 = CIRCLE ( 'NONE', #176, 140.8000000000000100 ) ;
#13 = AXIS2_PLACEMENT_3D ( 'NONE', #19, #130, #115 ) ;
#14 = FILL_AREA_STYLE ('',( #92 ) ) ;
#15 = ORIENTED_EDGE ( 'NONE', *, *, #49, .T. ) ;
#16 = DIRECTION ( 'NONE',  ( -1.000000000000000000, -4.877362175853829600E-016, -0.0000000000000000000 ) ) ;
#17 = SURFACE_STYLE_USAGE ( .BOTH. , #173 ) ;
#18 = PRESENTATION_LAYER_ASSIGNMENT (  '', '', ( #171 ) ) ;
#19 = CARTESIAN_POINT ( 'NONE',  ( 89.85865645361708700, 52.17808229838991000, 0.0000000000000000000 ) ) ;
#20 = ORIENTED_EDGE ( 'NONE', *, *, #82, .T. ) ;
#21 = UNCERTAINTY_MEASURE_WITH_UNIT (LENGTH_MEASURE( 1.000000000000000100E-005 ), #120, 'distance_accuracy_value', 'NONE');
#22 = DIRECTION ( 'NONE',  ( 0.0000000000000000000, 0.0000000000000000000, -1.000000000000000000 ) ) ;
#23 = FACE_OUTER_BOUND ( 'NONE', #26, .T. ) ;
#24 = CARTESIAN_POINT ( 'NONE',  ( 237.8904439683599900, 52.17808229839354800, 0.0000000000000000000 ) ) ;
#25 =( NAMED_UNIT ( * ) SI_UNIT ( $, .STERADIAN. ) SOLID_ANGLE_UNIT ( ) );
#26 = EDGE_LOOP ( 'NONE', ( #84, #126, #98 ) ) ;
#27 = MANIFOLD_SOLID_BREP ( 'Ðý×ª1', #139 ) ;
#28 = SPHERICAL_SURFACE ( 'NONE', #11, 140.8000000000000100 ) ;
#29 = PRODUCT_DEFINITION ( 'Î´Öª', '', #78, #63 ) ;
#30 = CARTESIAN_POINT ( 'NONE',  ( 97.66437649158839900, 39.47808229839358800, 0.0000000000000000000 ) ) ;
#31 =( LENGTH_UNIT ( ) NAMED_UNIT ( * ) SI_UNIT ( .MILLI., .METRE. ) );
#32 = EDGE_CURVE ( 'NONE', #33, #122, #87, .T. ) ;
#33 = VERTEX_POINT ( 'NONE', #30 ) ;
#34 =( NAMED_UNIT ( * ) PLANE_ANGLE_UNIT ( ) SI_UNIT ( $, .RADIAN. ) );
#35 = DIRECTION ( 'NONE',  ( 0.0000000000000000000, 1.000000000000000000, 1.224646799147353200E-016 ) ) ;
#36 = CARTESIAN_POINT ( 'NONE',  ( 237.8904439683599900, 52.17808229839354800, 0.0000000000000000000 ) ) ;
#37 = SURFACE_STYLE_FILL_AREA ( #14 ) ;
#38 = AXIS2_PLACEMENT_3D ( 'NONE', #68, #96, #80 ) ;
#39 = DIRECTION ( 'NONE',  ( 1.000000000000000000, 0.0000000000000000000, 0.0000000000000000000 ) ) ;
#40 = SURFACE_STYLE_FILL_AREA ( #155 ) ;
#41 = ADVANCED_BREP_SHAPE_REPRESENTATION ( '130079', ( #27, #46 ), #51 ) ;
#42 = ADVANCED_FACE ( 'NONE', ( #90 ), #129, .T. ) ;
#43 = EDGE_LOOP ( 'NONE', ( #110, #74, #177, #4 ) ) ;
#44 = DIRECTION ( 'NONE',  ( 3.942553354492743000E-016, -1.000000000000000000, 0.0000000000000000000 ) ) ;
#45 = SPHERICAL_SURFACE ( 'NONE', #170, 140.8000000000000100 ) ;
#46 = AXIS2_PLACEMENT_3D ( 'NONE', #168, #86, #70 ) ;
#47 = CIRCLE ( 'NONE', #137, 12.70000000000000300 ) ;
#48 = EDGE_CURVE ( 'NONE', #159, #64, #164, .T. ) ;
#49 = EDGE_CURVE ( 'NONE', #159, #122, #79, .T. ) ;
#50 = FACE_OUTER_BOUND ( 'NONE', #150, .T. ) ;
#51 =( GEOMETRIC_REPRESENTATION_CONTEXT ( 3 ) GLOBAL_UNCERTAINTY_ASSIGNED_CONTEXT ( ( #21 ) ) GLOBAL_UNIT_ASSIGNED_CONTEXT ( ( #120, #152, #25 ) ) REPRESENTATION_CONTEXT ( 'NONE', 'WORKASPACE' ) );
#52 = CIRCLE ( 'NONE', #91, 12.69999999999999600 ) ;
#53 = DIRECTION ( 'NONE',  ( -1.000000000000000000, -4.877362175853829600E-016, -0.0000000000000000000 ) ) ;
#54 = CARTESIAN_POINT ( 'NONE',  ( 97.09044396835997800, 52.17808229839347000, 0.0000000000000000000 ) ) ;
#55 = SPHERICAL_SURFACE ( 'NONE', #107, 140.8000000000000100 ) ;
#56 = FILL_AREA_STYLE_COLOUR ( '', #143 ) ;
#57 = EDGE_LOOP ( 'NONE', ( #166, #69, #60 ) ) ;
#58 = ORIENTED_EDGE ( 'NONE', *, *, #163, .T. ) ;
#59 = LINE ( 'NONE', #100, #158 ) ;
#60 = ORIENTED_EDGE ( 'NONE', *, *, #75, .T. ) ;
#61 = MECHANICAL_DESIGN_GEOMETRIC_PRESENTATION_REPRESENTATION (  '', ( #138 ), #127 ) ;
#62 = PRESENTATION_STYLE_ASSIGNMENT (( #17 ) ) ;
#63 = PRODUCT_DEFINITION_CONTEXT ( 'detailed design', #183, 'design' ) ;
#64 = VERTEX_POINT ( 'NONE', #85 ) ;
#65 = CARTESIAN_POINT ( 'NONE',  ( 237.8904439683599900, 52.17808229839354800, 0.0000000000000000000 ) ) ;
#66 = CARTESIAN_POINT ( 'NONE',  ( 94.51651144513118700, 52.17808229838991000, 0.0000000000000000000 ) ) ;
#67 = PRESENTATION_STYLE_ASSIGNMENT (( #88 ) ) ;
#68 = CARTESIAN_POINT ( 'NONE',  ( -45.70955603164004800, 52.17808229838991000, 0.0000000000000000000 ) ) ;
#69 = ORIENTED_EDGE ( 'NONE', *, *, #163, .F. ) ;
#70 = DIRECTION ( 'NONE',  ( 1.000000000000000000, 0.0000000000000000000, 0.0000000000000000000 ) ) ;
#71 = ORIENTED_EDGE ( 'NONE', *, *, #32, .F. ) ;
#72 = UNCERTAINTY_MEASURE_WITH_UNIT (LENGTH_MEASURE( 1.000000000000000100E-005 ), #121, 'distance_accuracy_value', 'NONE');
#73 = CIRCLE ( 'NONE', #6, 12.70000000000000300 ) ;
#74 = ORIENTED_EDGE ( 'NONE', *, *, #1, .T. ) ;
#75 = EDGE_CURVE ( 'NONE', #33, #191, #12, .T. ) ;
#76 = FACE_OUTER_BOUND ( 'NONE', #57, .T. ) ;
#77 = DIRECTION ( 'NONE',  ( 0.0000000000000000000, -1.000000000000000000, 0.0000000000000000000 ) ) ;
#78 = PRODUCT_DEFINITION_FORMATION_WITH_SPECIFIED_SOURCE ( 'ÈÎºÎ', '', #148, .NOT_KNOWN. ) ;
#79 = CIRCLE ( 'NONE', #169, 140.8000000000000100 ) ;
#80 = DIRECTION ( 'NONE',  ( -4.928191693115928800E-016, 1.000000000000000000, 0.0000000000000000000 ) ) ;
#81 = CARTESIAN_POINT ( 'NONE',  ( 97.66437649158841300, 52.17808229838991700, 0.0000000000000000000 ) ) ;
#82 = EDGE_CURVE ( 'NONE', #64, #122, #47, .T. ) ;
#83 = CARTESIAN_POINT ( 'NONE',  ( -45.70955603164004800, 52.17808229838991000, 0.0000000000000000000 ) ) ;
#84 = ORIENTED_EDGE ( 'NONE', *, *, #1, .F. ) ;
#85 = CARTESIAN_POINT ( 'NONE',  ( 94.51651144513118700, 64.87808229838991300, 1.555301434917138600E-015 ) ) ;
#86 = DIRECTION ( 'NONE',  ( 0.0000000000000000000, 0.0000000000000000000, 1.000000000000000000 ) ) ;
#87 = LINE ( 'NONE', #94, #124 ) ;
#88 = SURFACE_STYLE_USAGE ( .BOTH. , #133 ) ;
#89 = FACE_OUTER_BOUND ( 'NONE', #141, .T. ) ;
#90 = FACE_OUTER_BOUND ( 'NONE', #43, .T. ) ;
#91 = AXIS2_PLACEMENT_3D ( 'NONE', #111, #142, #77 ) ;
#92 = FILL_AREA_STYLE_COLOUR ( '', #136 ) ;
#93 = ORIENTED_EDGE ( 'NONE', *, *, #154, .T. ) ;
#94 = CARTESIAN_POINT ( 'NONE',  ( 89.85865645361708700, 39.47808229838990700, 0.0000000000000000000 ) ) ;
#95 = CARTESIAN_POINT ( 'NONE',  ( 94.51651144513118700, 39.47808229838990700, 0.0000000000000000000 ) ) ;
#96 = DIRECTION ( 'NONE',  ( 0.0000000000000000000, 0.0000000000000000000, -1.000000000000000000 ) ) ;
#97 = PRODUCT_DEFINITION_SHAPE ( 'NONE', 'NONE',  #29 ) ;
#98 = ORIENTED_EDGE ( 'NONE', *, *, #75, .F. ) ;
#99 = DIRECTION ( 'NONE',  ( -1.000000000000000000, 0.0000000000000000000, 0.0000000000000000000 ) ) ;
#100 = CARTESIAN_POINT ( 'NONE',  ( 89.85865645361708700, 64.87808229838991300, 1.555301434917138800E-015 ) ) ;
#101 =( NAMED_UNIT ( * ) PLANE_ANGLE_UNIT ( ) SI_UNIT ( $, .RADIAN. ) );
#102 = MECHANICAL_DESIGN_GEOMETRIC_PRESENTATION_REPRESENTATION (  '', ( #171 ), #114 ) ;
#103 = ORIENTED_EDGE ( 'NONE', *, *, #48, .T. ) ;
#104 = ORIENTED_EDGE ( 'NONE', *, *, #49, .F. ) ;
#105 = FACE_OUTER_BOUND ( 'NONE', #156, .T. ) ;
#106 = VERTEX_POINT ( 'NONE', #165 ) ;
#107 = AXIS2_PLACEMENT_3D ( 'NONE', #188, #22, #174 ) ;
#108 = DIRECTION ( 'NONE',  ( 0.0000000000000000000, -1.000000000000000000, 0.0000000000000000000 ) ) ;
#109 = DIRECTION ( 'NONE',  ( -1.000000000000000000, -4.877362175853829600E-016, -0.0000000000000000000 ) ) ;
#110 = ORIENTED_EDGE ( 'NONE', *, *, #140, .F. ) ;
#111 = CARTESIAN_POINT ( 'NONE',  ( 97.66437649158841300, 52.17808229838991700, 0.0000000000000000000 ) ) ;
#112 = CARTESIAN_POINT ( 'NONE',  ( 95.09044396835996300, 52.17808229838998800, 0.0000000000000000000 ) ) ;
#113 = DIRECTION ( 'NONE',  ( 0.0000000000000000000, -1.000000000000000000, 0.0000000000000000000 ) ) ;
#114 =( GEOMETRIC_REPRESENTATION_CONTEXT ( 3 ) GLOBAL_UNCERTAINTY_ASSIGNED_CONTEXT ( ( #3 ) ) GLOBAL_UNIT_ASSIGNED_CONTEXT ( ( #31, #34, #125 ) ) REPRESENTATION_CONTEXT ( 'NONE', 'WORKASPACE' ) );
#115 = DIRECTION ( 'NONE',  ( 0.0000000000000000000, -1.000000000000000000, 0.0000000000000000000 ) ) ;
#116 = ADVANCED_FACE ( 'NONE', ( #50 ), #186, .F. ) ;
#117 = DIRECTION ( 'NONE',  ( -1.000000000000000000, -4.877362175853829600E-016, -0.0000000000000000000 ) ) ;
#118 = ORIENTED_EDGE ( 'NONE', *, *, #140, .T. ) ;
#119 = CYLINDRICAL_SURFACE ( 'NONE', #13, 12.70000000000000300 ) ;
#120 =( LENGTH_UNIT ( ) NAMED_UNIT ( * ) SI_UNIT ( .MILLI., .METRE. ) );
#121 =( LENGTH_UNIT ( ) NAMED_UNIT ( * ) SI_UNIT ( .MILLI., .METRE. ) );
#122 = VERTEX_POINT ( 'NONE', #95 ) ;
#123 = PRODUCT_RELATED_PRODUCT_CATEGORY ( 'part', '', ( #148 ) ) ;
#124 = VECTOR ( 'NONE', #16, 1000.000000000000000 ) ;
#125 =( NAMED_UNIT ( * ) SI_UNIT ( $, .STERADIAN. ) SOLID_ANGLE_UNIT ( ) );
#126 = ORIENTED_EDGE ( 'NONE', *, *, #157, .T. ) ;
#127 =( GEOMETRIC_REPRESENTATION_CONTEXT ( 3 ) GLOBAL_UNCERTAINTY_ASSIGNED_CONTEXT ( ( #72 ) ) GLOBAL_UNIT_ASSIGNED_CONTEXT ( ( #121, #101, #167 ) ) REPRESENTATION_CONTEXT ( 'NONE', 'WORKASPACE' ) );
#128 = AXIS2_PLACEMENT_3D ( 'NONE', #81, #7, #146 ) ;
#129 = CYLINDRICAL_SURFACE ( 'NONE', #192, 12.70000000000000300 ) ;
#130 = DIRECTION ( 'NONE',  ( -1.000000000000000000, -4.877362175853829600E-016, -0.0000000000000000000 ) ) ;
#131 = DIRECTION ( 'NONE',  ( -1.000000000000000000, -4.877362175853829600E-016, -0.0000000000000000000 ) ) ;
#132 = ADVANCED_FACE ( 'NONE', ( #76 ), #45, .F. ) ;
#133 = SURFACE_SIDE_STYLE ('',( #40 ) ) ;
#134 = APPLICATION_PROTOCOL_DEFINITION ( 'draft international standard', 'automotive_design', 1998, #151 ) ;
#135 = AXIS2_PLACEMENT_3D ( 'NONE', #145, #149, #39 ) ;
#136 = COLOUR_RGB ( '',1.000000000000000000, 1.000000000000000000, 1.000000000000000000 ) ;
#137 = AXIS2_PLACEMENT_3D ( 'NONE', #66, #53, #162 ) ;
#138 = STYLED_ITEM ( 'NONE', ( #67 ), #41 ) ;
#139 = CLOSED_SHELL ( 'NONE', ( #116, #178, #189, #132, #42, #182 ) ) ;
#140 = EDGE_CURVE ( 'NONE', #106, #64, #59, .T. ) ;
#141 = EDGE_LOOP ( 'NONE', ( #104, #103, #20 ) ) ;
#142 = DIRECTION ( 'NONE',  ( -1.000000000000000000, -4.877362175853829600E-016, -0.0000000000000000000 ) ) ;
#143 = COLOUR_RGB ( '',1.000000000000000000, 1.000000000000000000, 1.000000000000000000 ) ;
#144 = CARTESIAN_POINT ( 'NONE',  ( 237.8904439683599900, 52.17808229839354800, 0.0000000000000000000 ) ) ;
#145 = CARTESIAN_POINT ( 'NONE',  ( -45.70955603164004800, 52.17808229838991000, 0.0000000000000000000 ) ) ;
#146 = DIRECTION ( 'NONE',  ( 0.0000000000000000000, -1.000000000000000000, 0.0000000000000000000 ) ) ;
#147 = CARTESIAN_POINT ( 'NONE',  ( 94.51651144513118700, 52.17808229838991000, 0.0000000000000000000 ) ) ;
#148 = PRODUCT ( '130079', '130079', '', ( #10 ) ) ;
#149 = DIRECTION ( 'NONE',  ( 0.0000000000000000000, -0.0000000000000000000, 1.000000000000000000 ) ) ;
#150 = EDGE_LOOP ( 'NONE', ( #180, #15, #93 ) ) ;
#151 = APPLICATION_CONTEXT ( 'automotive_design' ) ;
#152 =( NAMED_UNIT ( * ) PLANE_ANGLE_UNIT ( ) SI_UNIT ( $, .RADIAN. ) );
#153 = CIRCLE ( 'NONE', #128, 12.69999999999999600 ) ;
#154 = EDGE_CURVE ( 'NONE', #122, #64, #73, .T. ) ;
#155 = FILL_AREA_STYLE ('',( #56 ) ) ;
#156 = EDGE_LOOP ( 'NONE', ( #58, #118, #185, #71 ) ) ;
#157 = EDGE_CURVE ( 'NONE', #106, #191, #2, .T. ) ;
#158 = VECTOR ( 'NONE', #117, 1000.000000000000000 ) ;
#159 = VERTEX_POINT ( 'NONE', #112 ) ;
#160 = SHAPE_DEFINITION_REPRESENTATION ( #97, #41 ) ;
#161 = CARTESIAN_POINT ( 'NONE',  ( 89.85865645361708700, 52.17808229838991000, 0.0000000000000000000 ) ) ;
#162 = DIRECTION ( 'NONE',  ( 0.0000000000000000000, -1.000000000000000000, 0.0000000000000000000 ) ) ;
#163 = EDGE_CURVE ( 'NONE', #33, #106, #153, .T. ) ;
#164 = CIRCLE ( 'NONE', #135, 140.8000000000000100 ) ;
#165 = CARTESIAN_POINT ( 'NONE',  ( 97.66437649158839900, 64.87808229838981300, 1.555301434916689400E-015 ) ) ;
#166 = ORIENTED_EDGE ( 'NONE', *, *, #157, .F. ) ;
#167 =( NAMED_UNIT ( * ) SI_UNIT ( $, .STERADIAN. ) SOLID_ANGLE_UNIT ( ) );
#168 = CARTESIAN_POINT ( 'NONE',  ( 0.0000000000000000000, 0.0000000000000000000, 0.0000000000000000000 ) ) ;
#169 = AXIS2_PLACEMENT_3D ( 'NONE', #83, #179, #35 ) ;
#170 = AXIS2_PLACEMENT_3D ( 'NONE', #36, #5, #9 ) ;
#171 = STYLED_ITEM ( 'NONE', ( #62 ), #27 ) ;
#172 = PRESENTATION_LAYER_ASSIGNMENT (  '', '', ( #138 ) ) ;
#173 = SURFACE_SIDE_STYLE ('',( #37 ) ) ;
#174 = DIRECTION ( 'NONE',  ( -4.928191693115928800E-016, 1.000000000000000000, 0.0000000000000000000 ) ) ;
#175 = AXIS2_PLACEMENT_3D ( 'NONE', #65, #190, #8 ) ;
#176 = AXIS2_PLACEMENT_3D ( 'NONE', #144, #187, #99 ) ;
#177 = ORIENTED_EDGE ( 'NONE', *, *, #32, .T. ) ;
#178 = ADVANCED_FACE ( 'NONE', ( #105 ), #119, .T. ) ;
#179 = DIRECTION ( 'NONE',  ( -5.973045976941762700E-032, 1.224646799147353200E-016, -1.000000000000000000 ) ) ;
#180 = ORIENTED_EDGE ( 'NONE', *, *, #48, .F. ) ;
#181 = APPLICATION_PROTOCOL_DEFINITION ( 'draft international standard', 'automotive_design', 1998, #183 ) ;
#182 = ADVANCED_FACE ( 'NONE', ( #89 ), #55, .F. ) ;
#183 = APPLICATION_CONTEXT ( 'automotive_design' ) ;
#184 = DIRECTION ( 'NONE',  ( -0.0000000000000000000, 0.0000000000000000000, 1.000000000000000000 ) ) ;
#185 = ORIENTED_EDGE ( 'NONE', *, *, #154, .F. ) ;
#186 = SPHERICAL_SURFACE ( 'NONE', #38, 140.8000000000000100 ) ;
#187 = DIRECTION ( 'NONE',  ( 0.0000000000000000000, 0.0000000000000000000, -1.000000000000000000 ) ) ;
#188 = CARTESIAN_POINT ( 'NONE',  ( -45.70955603164004800, 52.17808229838991000, 0.0000000000000000000 ) ) ;
#189 = ADVANCED_FACE ( 'NONE', ( #23 ), #28, .F. ) ;
#190 = DIRECTION ( 'NONE',  ( 5.973045976941762700E-032, -1.224646799147353200E-016, 1.000000000000000000 ) ) ;
#191 = VERTEX_POINT ( 'NONE', #54 ) ;
#192 = AXIS2_PLACEMENT_3D ( 'NONE', #161, #109, #108 ) ;
ENDSEC;
END-ISO-10303-21;
