ISO-10303-21;
HEADER;
FILE_DESCRIPTION (( 'STEP AP214' ),
    '1' );
FILE_NAME ('130081.STEP',
    '2019-07-03T06:10:21',
    ( '' ),
    ( '' ),
    'SwSTEP 2.0',
    'SolidWorks 2016',
    '' );
FILE_SCHEMA (( 'AUTOMOTIVE_DESIGN' ));
ENDSEC;

DATA;
#1 = FILL_AREA_STYLE_COLOUR ( '', #148 ) ;
#2 = ADVANCED_BREP_SHAPE_REPRESENTATION ( '130081', ( #70, #47 ), #156 ) ;
#3 = CYLINDRICAL_SURFACE ( 'NONE', #89, 12.69999999999996900 ) ;
#4 = TOROIDAL_SURFACE ( 'NONE', #5, 0.2806437593379280700, 281.0999998984301600 ) ;
#5 = AXIS2_PLACEMENT_3D ( 'NONE', #97, #127, #42 ) ;
#6 = VECTOR ( 'NONE', #151, 1000.000000000000000 ) ;
#7 = EDGE_LOOP ( 'NONE', ( #171, #94, #17 ) ) ;
#8 = PRESENTATION_LAYER_ASSIGNMENT (  '', '', ( #67 ) ) ;
#9 = FILL_AREA_STYLE_COLOUR ( '', #174 ) ;
#10 = ADVANCED_FACE ( 'NONE', ( #36 ), #4, .F. ) ;
#11 = CIRCLE ( 'NONE', #48, 281.0999998984301600 ) ;
#12 = AXIS2_PLACEMENT_3D ( 'NONE', #139, #56, #88 ) ;
#13 = SURFACE_SIDE_STYLE ('',( #123 ) ) ;
#14 = SURFACE_STYLE_USAGE ( .BOTH. , #13 ) ;
#15 = PRODUCT_DEFINITION_CONTEXT ( 'detailed design', #135, 'design' ) ;
#16 = CARTESIAN_POINT ( 'NONE',  ( 94.81609817633446400, 64.87808229838984200, 1.555301434917132700E-015 ) ) ;
#17 = ORIENTED_EDGE ( 'NONE', *, *, #140, .T. ) ;
#18 = DIRECTION ( 'NONE',  ( 0.0000000000000000000, -1.000000000000000000, 0.0000000000000000000 ) ) ;
#19 = CARTESIAN_POINT ( 'NONE',  ( 0.0000000000000000000, 0.0000000000000000000, 0.0000000000000000000 ) ) ;
#20 = DIRECTION ( 'NONE',  ( 0.0000000000000000000, -1.000000000000000000, 0.0000000000000000000 ) ) ;
#21 = TOROIDAL_SURFACE ( 'NONE', #125, 0.2806437593379280700, 281.0999998984301600 ) ;
#22 = FACE_OUTER_BOUND ( 'NONE', #124, .T. ) ;
#23 = MECHANICAL_DESIGN_GEOMETRIC_PRESENTATION_REPRESENTATION (  '', ( #120 ), #50 ) ;
#24 = PRESENTATION_STYLE_ASSIGNMENT (( #168 ) ) ;
#25 = FACE_OUTER_BOUND ( 'NONE', #7, .T. ) ;
#26 = DIRECTION ( 'NONE',  ( -1.000000000000000000, -4.877362175853829600E-016, -0.0000000000000000000 ) ) ;
#27 = ADVANCED_FACE ( 'NONE', ( #22 ), #45, .F. ) ;
#28 = DIRECTION ( 'NONE',  ( 4.877362175853829600E-016, -1.000000000000000000, 0.0000000000000000000 ) ) ;
#29 = CIRCLE ( 'NONE', #12, 281.0999998984300400 ) ;
#30 = CARTESIAN_POINT ( 'NONE',  ( 89.85865645361708700, 52.17808229838991000, 0.0000000000000000000 ) ) ;
#31 = CARTESIAN_POINT ( 'NONE',  ( 97.36478976038543500, 52.17808229838991700, 0.0000000000000000000 ) ) ;
#32 = SURFACE_SIDE_STYLE ('',( #62 ) ) ;
#33 = ORIENTED_EDGE ( 'NONE', *, *, #192, .T. ) ;
#34 = DIRECTION ( 'NONE',  ( -1.000000000000000000, -4.877362175853829600E-016, -0.0000000000000000000 ) ) ;
#35 = FACE_OUTER_BOUND ( 'NONE', #109, .T. ) ;
#36 = FACE_OUTER_BOUND ( 'NONE', #72, .T. ) ;
#37 = EDGE_LOOP ( 'NONE', ( #134, #51, #87, #160 ) ) ;
#38 = UNCERTAINTY_MEASURE_WITH_UNIT (LENGTH_MEASURE( 1.000000000000000100E-005 ), #131, 'distance_accuracy_value', 'NONE');
#39 = VERTEX_POINT ( 'NONE', #133 ) ;
#40 = ADVANCED_FACE ( 'NONE', ( #25 ), #154, .F. ) ;
#41 = EDGE_CURVE ( 'NONE', #39, #59, #11, .T. ) ;
#42 = DIRECTION ( 'NONE',  ( 4.877362175853829600E-016, -1.000000000000000000, 0.0000000000000000000 ) ) ;
#43 = LINE ( 'NONE', #74, #6 ) ;
#44 = DIRECTION ( 'NONE',  ( 0.0000000000000000000, -1.000000000000000000, 0.0000000000000000000 ) ) ;
#45 = TOROIDAL_SURFACE ( 'NONE', #93, 0.2806437593377938400, 281.0999998984300400 ) ;
#46 = DIRECTION ( 'NONE',  ( -1.000000000000000000, 0.0000000000000000000, 0.0000000000000000000 ) ) ;
#47 = AXIS2_PLACEMENT_3D ( 'NONE', #19, #166, #71 ) ;
#48 = AXIS2_PLACEMENT_3D ( 'NONE', #130, #146, #101 ) ;
#49 = ORIENTED_EDGE ( 'NONE', *, *, #158, .F. ) ;
#50 =( GEOMETRIC_REPRESENTATION_CONTEXT ( 3 ) GLOBAL_UNCERTAINTY_ASSIGNED_CONTEXT ( ( #126 ) ) GLOBAL_UNIT_ASSIGNED_CONTEXT ( ( #121, #106, #163 ) ) REPRESENTATION_CONTEXT ( 'NONE', 'WORKASPACE' ) );
#51 = ORIENTED_EDGE ( 'NONE', *, *, #137, .T. ) ;
#52 = PRODUCT_RELATED_PRODUCT_CATEGORY ( 'part', '', ( #75 ) ) ;
#53 = PRESENTATION_STYLE_ASSIGNMENT (( #14 ) ) ;
#54 = DIRECTION ( 'NONE',  ( 0.0000000000000000000, -1.000000000000000000, 0.0000000000000000000 ) ) ;
#55 = DIRECTION ( 'NONE',  ( -1.000000000000000000, -4.877362175853829600E-016, -0.0000000000000000000 ) ) ;
#56 = DIRECTION ( 'NONE',  ( 5.973045976941762700E-032, -1.224646799147353200E-016, 1.000000000000000000 ) ) ;
#57 = DIRECTION ( 'NONE',  ( 0.0000000000000000000, 0.0000000000000000000, -1.000000000000000000 ) ) ;
#58 = CARTESIAN_POINT ( 'NONE',  ( 378.1903041522671200, 51.89743853905211800, 0.0000000000000000000 ) ) ;
#59 = VERTEX_POINT ( 'NONE', #68 ) ;
#60 = AXIS2_PLACEMENT_3D ( 'NONE', #161, #177, #178 ) ;
#61 = CARTESIAN_POINT ( 'NONE',  ( 378.1903041522671200, 52.17808229839005200, 0.0000000000000000000 ) ) ;
#62 = SURFACE_STYLE_FILL_AREA ( #73 ) ;
#63 = ORIENTED_EDGE ( 'NONE', *, *, #69, .T. ) ;
#64 = PRODUCT_DEFINITION_FORMATION_WITH_SPECIFIED_SOURCE ( 'ÈÎºÎ', '', #75, .NOT_KNOWN. ) ;
#65 = CIRCLE ( 'NONE', #108, 12.69999999999999600 ) ;
#66 = CARTESIAN_POINT ( 'NONE',  ( 97.36478976038543500, 52.17808229838991700, 0.0000000000000000000 ) ) ;
#67 = STYLED_ITEM ( 'NONE', ( #53 ), #70 ) ;
#68 = CARTESIAN_POINT ( 'NONE',  ( 97.09044434800151200, 52.17808229838991000, 0.0000000000000000000 ) ) ;
#69 = EDGE_CURVE ( 'NONE', #80, #83, #181, .T. ) ;
#70 = MANIFOLD_SOLID_BREP ( 'Ðý×ª1', #92 ) ;
#71 = DIRECTION ( 'NONE',  ( 1.000000000000000000, 0.0000000000000000000, 0.0000000000000000000 ) ) ;
#72 = EDGE_LOOP ( 'NONE', ( #104, #96, #190 ) ) ;
#73 = FILL_AREA_STYLE ('',( #1 ) ) ;
#74 = CARTESIAN_POINT ( 'NONE',  ( 89.85865645361708700, 64.87808229838987000, 1.555301434917134700E-015 ) ) ;
#75 = PRODUCT ( '130081', '130081', '', ( #138 ) ) ;
#76 = AXIS2_PLACEMENT_3D ( 'NONE', #147, #116, #54 ) ;
#77 = VERTEX_POINT ( 'NONE', #113 ) ;
#78 = AXIS2_PLACEMENT_3D ( 'NONE', #58, #57, #46 ) ;
#79 = CIRCLE ( 'NONE', #180, 12.69999999999999600 ) ;
#80 = VERTEX_POINT ( 'NONE', #16 ) ;
#81 = CARTESIAN_POINT ( 'NONE',  ( -186.0094162155471100, 52.17808229838978200, 0.0000000000000000000 ) ) ;
#82 = EDGE_CURVE ( 'NONE', #77, #83, #111, .T. ) ;
#83 = VERTEX_POINT ( 'NONE', #187 ) ;
#84 = CARTESIAN_POINT ( 'NONE',  ( -186.0094162155471100, 51.89743853905199000, 0.0000000000000000000 ) ) ;
#85 = PRODUCT_DEFINITION_SHAPE ( 'NONE', 'NONE',  #91 ) ;
#86 = VECTOR ( 'NONE', #149, 1000.000000000000000 ) ;
#87 = ORIENTED_EDGE ( 'NONE', *, *, #145, .T. ) ;
#88 = DIRECTION ( 'NONE',  ( 0.0000000000000000000, -1.000000000000000000, -1.224646799147353200E-016 ) ) ;
#89 = AXIS2_PLACEMENT_3D ( 'NONE', #30, #55, #162 ) ;
#90 = ORIENTED_EDGE ( 'NONE', *, *, #140, .F. ) ;
#91 = PRODUCT_DEFINITION ( 'Î´Öª', '', #64, #15 ) ;
#92 = CLOSED_SHELL ( 'NONE', ( #27, #115, #189, #10, #132, #40 ) ) ;
#93 = AXIS2_PLACEMENT_3D ( 'NONE', #81, #26, #28 ) ;
#94 = ORIENTED_EDGE ( 'NONE', *, *, #82, .T. ) ;
#95 = AXIS2_PLACEMENT_3D ( 'NONE', #105, #34, #44 ) ;
#96 = ORIENTED_EDGE ( 'NONE', *, *, #186, .F. ) ;
#97 = CARTESIAN_POINT ( 'NONE',  ( 378.1903041522671200, 52.17808229839005200, 0.0000000000000000000 ) ) ;
#98 =( NAMED_UNIT ( * ) SI_UNIT ( $, .STERADIAN. ) SOLID_ANGLE_UNIT ( ) );
#99 = FILL_AREA_STYLE ('',( #9 ) ) ;
#100 = DIRECTION ( 'NONE',  ( -1.000000000000000000, 0.0000000000000000000, 0.0000000000000000000 ) ) ;
#101 = DIRECTION ( 'NONE',  ( 0.0000000000000000000, -1.000000000000000000, -1.224646799147353200E-016 ) ) ;
#102 = CARTESIAN_POINT ( 'NONE',  ( 89.85865645361708700, 39.47808229838994300, 0.0000000000000000000 ) ) ;
#103 = APPLICATION_PROTOCOL_DEFINITION ( 'draft international standard', 'automotive_design', 1998, #191 ) ;
#104 = ORIENTED_EDGE ( 'NONE', *, *, #41, .F. ) ;
#105 = CARTESIAN_POINT ( 'NONE',  ( 94.81609817633446400, 52.17808229838991000, 0.0000000000000000000 ) ) ;
#106 =( NAMED_UNIT ( * ) PLANE_ANGLE_UNIT ( ) SI_UNIT ( $, .RADIAN. ) );
#107 = CYLINDRICAL_SURFACE ( 'NONE', #76, 12.69999999999996900 ) ;
#108 = AXIS2_PLACEMENT_3D ( 'NONE', #31, #136, #20 ) ;
#109 = EDGE_LOOP ( 'NONE', ( #141, #183, #49 ) ) ;
#110 = MECHANICAL_DESIGN_GEOMETRIC_PRESENTATION_REPRESENTATION (  '', ( #67 ), #129 ) ;
#111 = CIRCLE ( 'NONE', #172, 281.0999998984300400 ) ;
#112 =( NAMED_UNIT ( * ) PLANE_ANGLE_UNIT ( ) SI_UNIT ( $, .RADIAN. ) );
#113 = CARTESIAN_POINT ( 'NONE',  ( 95.09044358871837200, 52.17808229838991700, 0.0000000000000000000 ) ) ;
#114 = CARTESIAN_POINT ( 'NONE',  ( -186.0094162155471100, 52.17808229838978200, 0.0000000000000000000 ) ) ;
#115 = ADVANCED_FACE ( 'NONE', ( #184 ), #107, .T. ) ;
#116 = DIRECTION ( 'NONE',  ( -1.000000000000000000, -4.877362175853829600E-016, -0.0000000000000000000 ) ) ;
#117 =( NAMED_UNIT ( * ) SI_UNIT ( $, .STERADIAN. ) SOLID_ANGLE_UNIT ( ) );
#118 = CIRCLE ( 'NONE', #78, 281.0999998984301600 ) ;
#119 = EDGE_LOOP ( 'NONE', ( #185, #33, #90, #152 ) ) ;
#120 = STYLED_ITEM ( 'NONE', ( #24 ), #2 ) ;
#121 =( LENGTH_UNIT ( ) NAMED_UNIT ( * ) SI_UNIT ( .MILLI., .METRE. ) );
#122 =( LENGTH_UNIT ( ) NAMED_UNIT ( * ) SI_UNIT ( .MILLI., .METRE. ) );
#123 = SURFACE_STYLE_FILL_AREA ( #99 ) ;
#124 = EDGE_LOOP ( 'NONE', ( #144, #128, #63 ) ) ;
#125 = AXIS2_PLACEMENT_3D ( 'NONE', #61, #170, #153 ) ;
#126 = UNCERTAINTY_MEASURE_WITH_UNIT (LENGTH_MEASURE( 1.000000000000000100E-005 ), #121, 'distance_accuracy_value', 'NONE');
#127 = DIRECTION ( 'NONE',  ( -1.000000000000000000, -4.877362175853829600E-016, -0.0000000000000000000 ) ) ;
#128 = ORIENTED_EDGE ( 'NONE', *, *, #176, .T. ) ;
#129 =( GEOMETRIC_REPRESENTATION_CONTEXT ( 3 ) GLOBAL_UNCERTAINTY_ASSIGNED_CONTEXT ( ( #38 ) ) GLOBAL_UNIT_ASSIGNED_CONTEXT ( ( #131, #112, #98 ) ) REPRESENTATION_CONTEXT ( 'NONE', 'WORKASPACE' ) );
#130 = CARTESIAN_POINT ( 'NONE',  ( 378.1903041522671200, 52.45872605772797900, 3.436894815738737100E-017 ) ) ;
#131 =( LENGTH_UNIT ( ) NAMED_UNIT ( * ) SI_UNIT ( .MILLI., .METRE. ) );
#132 = ADVANCED_FACE ( 'NONE', ( #143 ), #3, .T. ) ;
#133 = CARTESIAN_POINT ( 'NONE',  ( 97.36478976038543500, 64.87808229839079400, 1.555301434917245500E-015 ) ) ;
#134 = ORIENTED_EDGE ( 'NONE', *, *, #192, .F. ) ;
#135 = APPLICATION_CONTEXT ( 'automotive_design' ) ;
#136 = DIRECTION ( 'NONE',  ( -1.000000000000000000, -4.877362175853829600E-016, -0.0000000000000000000 ) ) ;
#137 = EDGE_CURVE ( 'NONE', #39, #164, #79, .T. ) ;
#138 = PRODUCT_CONTEXT ( 'NONE', #191, 'mechanical' ) ;
#139 = CARTESIAN_POINT ( 'NONE',  ( -186.0094162155471100, 52.45872605772756700, 3.436894815737092800E-017 ) ) ;
#140 = EDGE_CURVE ( 'NONE', #83, #80, #157, .T. ) ;
#141 = ORIENTED_EDGE ( 'NONE', *, *, #137, .F. ) ;
#142 = LINE ( 'NONE', #102, #86 ) ;
#143 = FACE_OUTER_BOUND ( 'NONE', #37, .T. ) ;
#144 = ORIENTED_EDGE ( 'NONE', *, *, #82, .F. ) ;
#145 = EDGE_CURVE ( 'NONE', #164, #83, #142, .T. ) ;
#146 = DIRECTION ( 'NONE',  ( 5.973045976941762700E-032, -1.224646799147353200E-016, 1.000000000000000000 ) ) ;
#147 = CARTESIAN_POINT ( 'NONE',  ( 89.85865645361708700, 52.17808229838991000, 0.0000000000000000000 ) ) ;
#148 = COLOUR_RGB ( '',1.000000000000000000, 1.000000000000000000, 1.000000000000000000 ) ;
#149 = DIRECTION ( 'NONE',  ( -1.000000000000000000, -4.877362175853829600E-016, -0.0000000000000000000 ) ) ;
#150 = APPLICATION_PROTOCOL_DEFINITION ( 'draft international standard', 'automotive_design', 1998, #135 ) ;
#151 = DIRECTION ( 'NONE',  ( -1.000000000000000000, -4.877362175853829600E-016, -0.0000000000000000000 ) ) ;
#152 = ORIENTED_EDGE ( 'NONE', *, *, #145, .F. ) ;
#153 = DIRECTION ( 'NONE',  ( 4.877362175853829600E-016, -1.000000000000000000, 0.0000000000000000000 ) ) ;
#154 = TOROIDAL_SURFACE ( 'NONE', #155, 0.2806437593377938400, 281.0999998984300400 ) ;
#155 = AXIS2_PLACEMENT_3D ( 'NONE', #114, #159, #175 ) ;
#156 =( GEOMETRIC_REPRESENTATION_CONTEXT ( 3 ) GLOBAL_UNCERTAINTY_ASSIGNED_CONTEXT ( ( #167 ) ) GLOBAL_UNIT_ASSIGNED_CONTEXT ( ( #122, #165, #117 ) ) REPRESENTATION_CONTEXT ( 'NONE', 'WORKASPACE' ) );
#157 = CIRCLE ( 'NONE', #95, 12.69999999999993400 ) ;
#158 = EDGE_CURVE ( 'NONE', #164, #59, #118, .T. ) ;
#159 = DIRECTION ( 'NONE',  ( -1.000000000000000000, -4.877362175853829600E-016, -0.0000000000000000000 ) ) ;
#160 = ORIENTED_EDGE ( 'NONE', *, *, #69, .F. ) ;
#161 = CARTESIAN_POINT ( 'NONE',  ( 94.81609817633446400, 52.17808229838991000, 0.0000000000000000000 ) ) ;
#162 = DIRECTION ( 'NONE',  ( 0.0000000000000000000, -1.000000000000000000, 0.0000000000000000000 ) ) ;
#163 =( NAMED_UNIT ( * ) SI_UNIT ( $, .STERADIAN. ) SOLID_ANGLE_UNIT ( ) );
#164 = VERTEX_POINT ( 'NONE', #179 ) ;
#165 =( NAMED_UNIT ( * ) PLANE_ANGLE_UNIT ( ) SI_UNIT ( $, .RADIAN. ) );
#166 = DIRECTION ( 'NONE',  ( 0.0000000000000000000, 0.0000000000000000000, 1.000000000000000000 ) ) ;
#167 = UNCERTAINTY_MEASURE_WITH_UNIT (LENGTH_MEASURE( 1.000000000000000100E-005 ), #122, 'distance_accuracy_value', 'NONE');
#168 = SURFACE_STYLE_USAGE ( .BOTH. , #32 ) ;
#169 = PRESENTATION_LAYER_ASSIGNMENT (  '', '', ( #120 ) ) ;
#170 = DIRECTION ( 'NONE',  ( -1.000000000000000000, -4.877362175853829600E-016, -0.0000000000000000000 ) ) ;
#171 = ORIENTED_EDGE ( 'NONE', *, *, #176, .F. ) ;
#172 = AXIS2_PLACEMENT_3D ( 'NONE', #84, #188, #100 ) ;
#173 = DIRECTION ( 'NONE',  ( -1.000000000000000000, -4.877362175853829600E-016, -0.0000000000000000000 ) ) ;
#174 = COLOUR_RGB ( '',1.000000000000000000, 1.000000000000000000, 1.000000000000000000 ) ;
#175 = DIRECTION ( 'NONE',  ( 4.877362175853829600E-016, -1.000000000000000000, 0.0000000000000000000 ) ) ;
#176 = EDGE_CURVE ( 'NONE', #77, #80, #29, .T. ) ;
#177 = DIRECTION ( 'NONE',  ( -1.000000000000000000, -4.877362175853829600E-016, -0.0000000000000000000 ) ) ;
#178 = DIRECTION ( 'NONE',  ( 0.0000000000000000000, -1.000000000000000000, 0.0000000000000000000 ) ) ;
#179 = CARTESIAN_POINT ( 'NONE',  ( 97.36478976038543500, 39.47808229838903300, 0.0000000000000000000 ) ) ;
#180 = AXIS2_PLACEMENT_3D ( 'NONE', #66, #173, #18 ) ;
#181 = CIRCLE ( 'NONE', #60, 12.69999999999993400 ) ;
#182 = SHAPE_DEFINITION_REPRESENTATION ( #85, #2 ) ;
#183 = ORIENTED_EDGE ( 'NONE', *, *, #41, .T. ) ;
#184 = FACE_OUTER_BOUND ( 'NONE', #119, .T. ) ;
#185 = ORIENTED_EDGE ( 'NONE', *, *, #186, .T. ) ;
#186 = EDGE_CURVE ( 'NONE', #164, #39, #65, .T. ) ;
#187 = CARTESIAN_POINT ( 'NONE',  ( 94.81609817633446400, 39.47808229838997800, 0.0000000000000000000 ) ) ;
#188 = DIRECTION ( 'NONE',  ( 0.0000000000000000000, 0.0000000000000000000, -1.000000000000000000 ) ) ;
#189 = ADVANCED_FACE ( 'NONE', ( #35 ), #21, .F. ) ;
#190 = ORIENTED_EDGE ( 'NONE', *, *, #158, .T. ) ;
#191 = APPLICATION_CONTEXT ( 'automotive_design' ) ;
#192 = EDGE_CURVE ( 'NONE', #39, #80, #43, .T. ) ;
ENDSEC;
END-ISO-10303-21;
