ISO-10303-21;
HEADER;
FILE_DESCRIPTION (( 'STEP AP203' ),
    '1' );
FILE_NAME ('130089.STEP',
    '2024-05-11T01:07:52',
    ( '' ),
    ( '' ),
    'SwSTEP 2.0',
    'SolidWorks 2020',
    '' );
FILE_SCHEMA (( 'CONFIG_CONTROL_DESIGN' ));
ENDSEC;

DATA;
#1 = PERSON_AND_ORGANIZATION_ROLE ( 'creator' ) ;
#2 = DIRECTION ( 'NONE',  ( -1.000000000000000000, -3.507823382668297218E-15, -0.000000000000000000 ) ) ;
#3 = ORIENTED_EDGE ( 'NONE', *, *, #131, .T. ) ;
#4 = COORDINATED_UNIVERSAL_TIME_OFFSET ( 8, 0, .AHEAD. ) ;
#5 = DIRECTION ( 'NONE',  ( 3.527271067819513544E-15, -1.000000000000000000, 0.000000000000000000 ) ) ;
#6 = VERTEX_POINT ( 'NONE', #133 ) ;
#7 = APPROVAL_DATE_TIME ( #148, #43 ) ;
#8 = CARTESIAN_POINT ( 'NONE',  ( -32.65050343930666799, -4.127384496617016950E-15, 0.000000000000000000 ) ) ;
#9 = DIRECTION ( 'NONE',  ( 0.000000000000000000, 1.000000000000000000, 1.224646799147353207E-16 ) ) ;
#10 = LOCAL_TIME ( 9, 7, 52.00000000000000000, #122 ) ;
#11 = AXIS2_PLACEMENT_3D ( 'NONE', #191, #16, #26 ) ;
#12 = ADVANCED_FACE ( 'NONE', ( #39 ), #165, .F. ) ;
#13 = VECTOR ( 'NONE', #51, 1000.000000000000000 ) ;
#14 = APPROVAL_ROLE ( '' ) ;
#15 = PRODUCT_RELATED_PRODUCT_CATEGORY ( 'detail', '', ( #83 ) ) ;
#16 = DIRECTION ( 'NONE',  ( 0.000000000000000000, 0.000000000000000000, -1.000000000000000000 ) ) ;
#17 = ORIENTED_EDGE ( 'NONE', *, *, #86, .F. ) ;
#18 = VERTEX_POINT ( 'NONE', #25 ) ;
#19 =( NAMED_UNIT ( * ) PLANE_ANGLE_UNIT ( ) SI_UNIT ( $, .RADIAN. ) );
#20 = SECURITY_CLASSIFICATION_LEVEL ( 'unclassified' ) ;
#21 = CARTESIAN_POINT ( 'NONE',  ( -5.064999999999899138, -14.99999999999992362, -1.836970198721031955E-15 ) ) ;
#22 = EDGE_CURVE ( 'NONE', #18, #150, #68, .T. ) ;
#23 = ORIENTED_EDGE ( 'NONE', *, *, #206, .F. ) ;
#24 = PERSON_AND_ORGANIZATION ( #205, #136 ) ;
#25 = CARTESIAN_POINT ( 'NONE',  ( -1.250503439306667408, 1.079409651938288564E-13, 0.000000000000000000 ) ) ;
#26 = DIRECTION ( 'NONE',  ( -3.535742116640626126E-15, 1.000000000000000000, 0.000000000000000000 ) ) ;
#27 = APPROVAL_PERSON_ORGANIZATION ( #24, #104, #82 ) ;
#28 = SECURITY_CLASSIFICATION ( '', '', #20 ) ;
#29 = VECTOR ( 'NONE', #42, 1000.000000000000000 ) ;
#30 = CC_DESIGN_PERSON_AND_ORGANIZATION_ASSIGNMENT ( #141, #207, ( #83 ) ) ;
#31 = CALENDAR_DATE ( 2024, 11, 5 ) ;
#32 = ORIENTED_EDGE ( 'NONE', *, *, #226, .T. ) ;
#33 = DIRECTION ( 'NONE',  ( 0.000000000000000000, 0.000000000000000000, -1.000000000000000000 ) ) ;
#34 = ORIENTED_EDGE ( 'NONE', *, *, #146, .F. ) ;
#35 = LINE ( 'NONE', #124, #13 ) ;
#36 = PERSON_AND_ORGANIZATION ( #205, #136 ) ;
#37 = EDGE_CURVE ( 'NONE', #95, #150, #91, .T. ) ;
#38 = DIRECTION ( 'NONE',  ( -1.000000000000000000, -3.507823382668297218E-15, -0.000000000000000000 ) ) ;
#39 = FACE_OUTER_BOUND ( 'NONE', #111, .T. ) ;
#40 = PERSON_AND_ORGANIZATION ( #205, #136 ) ;
#41 = CARTESIAN_POINT ( 'NONE',  ( -5.064999999999949765, -1.366257377600202214E-14, 0.000000000000000000 ) ) ;
#42 = DIRECTION ( 'NONE',  ( -1.000000000000000000, -3.507823382668297218E-15, -0.000000000000000000 ) ) ;
#43 = APPROVAL ( #98, 'Î´Ö¸¶¨' ) ;
#44 =( GEOMETRIC_REPRESENTATION_CONTEXT ( 3 ) GLOBAL_UNCERTAINTY_ASSIGNED_CONTEXT ( ( #66 ) ) GLOBAL_UNIT_ASSIGNED_CONTEXT ( ( #209, #19, #174 ) ) REPRESENTATION_CONTEXT ( 'NONE', 'WORKASPACE' ) );
#45 = AXIS2_PLACEMENT_3D ( 'NONE', #130, #118, #198 ) ;
#46 = AXIS2_PLACEMENT_3D ( 'NONE', #8, #102, #151 ) ;
#47 = APPROVAL_STATUS ( 'not_yet_approved' ) ;
#48 = ORIENTED_EDGE ( 'NONE', *, *, #37, .T. ) ;
#49 = DATE_AND_TIME ( #210, #127 ) ;
#50 = DIRECTION ( 'NONE',  ( 3.512815038853035944E-15, -1.000000000000000000, 0.000000000000000000 ) ) ;
#51 = DIRECTION ( 'NONE',  ( -1.000000000000000000, -3.507823382668297218E-15, -0.000000000000000000 ) ) ;
#52 = CC_DESIGN_DATE_AND_TIME_ASSIGNMENT ( #49, #145, ( #222 ) ) ;
#53 = AXIS2_PLACEMENT_3D ( 'NONE', #92, #189, #154 ) ;
#54 = DATE_AND_TIME ( #161, #80 ) ;
#55 = CC_DESIGN_APPROVAL ( #104, ( #65 ) ) ;
#56 = AXIS2_PLACEMENT_3D ( 'NONE', #142, #33, #125 ) ;
#57 = COORDINATED_UNIVERSAL_TIME_OFFSET ( 8, 0, .AHEAD. ) ;
#58 = DIRECTION ( 'NONE',  ( 3.527271067819504866E-15, -1.000000000000000000, 0.000000000000000000 ) ) ;
#59 = DIRECTION ( 'NONE',  ( 0.000000000000000000, 0.000000000000000000, -1.000000000000000000 ) ) ;
#60 = CC_DESIGN_DATE_AND_TIME_ASSIGNMENT ( #54, #117, ( #28 ) ) ;
#61 = ORIENTED_EDGE ( 'NONE', *, *, #226, .F. ) ;
#62 = CARTESIAN_POINT ( 'NONE',  ( -1.250503439306667408, -2.819935472943280617E-16, 0.000000000000000000 ) ) ;
#63 = ADVANCED_FACE ( 'NONE', ( #182 ), #71, .F. ) ;
#64 = CC_DESIGN_PERSON_AND_ORGANIZATION_ASSIGNMENT ( #36, #214, ( #65 ) ) ;
#65 = PRODUCT_DEFINITION_FORMATION_WITH_SPECIFIED_SOURCE ( 'ÈÎºÎ', '', #83, .NOT_KNOWN. ) ;
#66 = UNCERTAINTY_MEASURE_WITH_UNIT (LENGTH_MEASURE( 1.000000000000000082E-05 ), #209, 'distance_accuracy_value', 'NONE');
#67 = APPROVAL_PERSON_ORGANIZATION ( #128, #43, #181 ) ;
#68 = CIRCLE ( 'NONE', #46, 31.39999999999999858 ) ;
#69 = EDGE_LOOP ( 'NONE', ( #74, #187, #123, #157 ) ) ;
#70 = COORDINATED_UNIVERSAL_TIME_OFFSET ( 8, 0, .AHEAD. ) ;
#71 = SPHERICAL_SURFACE ( 'NONE', #56, 31.39999999999999858 ) ;
#72 = ORIENTED_EDGE ( 'NONE', *, *, #107, .F. ) ;
#73 = CARTESIAN_POINT ( 'NONE',  ( -1.250503439306667408, -2.819935472943280617E-16, 0.000000000000000000 ) ) ;
#74 = ORIENTED_EDGE ( 'NONE', *, *, #131, .F. ) ;
#75 = FACE_OUTER_BOUND ( 'NONE', #69, .T. ) ;
#76 = AXIS2_PLACEMENT_3D ( 'NONE', #216, #59, #119 ) ;
#77 = ORIENTED_EDGE ( 'NONE', *, *, #22, .F. ) ;
#78 = ADVANCED_BREP_SHAPE_REPRESENTATION ( '130089', ( #194, #53 ), #44 ) ;
#79 = CALENDAR_DATE ( 2024, 11, 5 ) ;
#80 = LOCAL_TIME ( 9, 7, 52.00000000000000000, #129 ) ;
#81 = DIRECTION ( 'NONE',  ( 1.000000000000000000, 0.000000000000000000, 0.000000000000000000 ) ) ;
#82 = APPROVAL_ROLE ( '' ) ;
#83 = PRODUCT ( '130089', '130089', '', ( #171 ) ) ;
#84 = CYLINDRICAL_SURFACE ( 'NONE', #223, 14.99999999999999289 ) ;
#85 = CIRCLE ( 'NONE', #113, 14.99999999999997513 ) ;
#86 = EDGE_CURVE ( 'NONE', #6, #163, #85, .T. ) ;
#87 = ADVANCED_FACE ( 'NONE', ( #110 ), #172, .F. ) ;
#88 = APPLICATION_CONTEXT ( 'configuration controlled 3d designs of mechanical parts and assemblies' ) ;
#89 = CIRCLE ( 'NONE', #213, 31.39999999999999147 ) ;
#90 = LOCAL_TIME ( 9, 7, 52.00000000000000000, #4 ) ;
#91 = CIRCLE ( 'NONE', #177, 15.00000000000001243 ) ;
#92 = CARTESIAN_POINT ( 'NONE',  ( 0.000000000000000000, 0.000000000000000000, 0.000000000000000000 ) ) ;
#93 = APPROVAL_DATE_TIME ( #108, #158 ) ;
#94 = CARTESIAN_POINT ( 'NONE',  ( 5.065000000000051017, 2.187167709042782943E-14, 0.000000000000000000 ) ) ;
#95 = VERTEX_POINT ( 'NONE', #166 ) ;
#96 = CARTESIAN_POINT ( 'NONE',  ( -5.064999999999949765, -1.366257377600202214E-14, 0.000000000000000000 ) ) ;
#97 = DIRECTION ( 'NONE',  ( -1.000000000000000000, -3.507823382668297218E-15, -0.000000000000000000 ) ) ;
#98 = APPROVAL_STATUS ( 'not_yet_approved' ) ;
#99 = CARTESIAN_POINT ( 'NONE',  ( 5.064999999999998614, 15.00000000000000000, 1.836970198721029983E-15 ) ) ;
#100 = ORIENTED_EDGE ( 'NONE', *, *, #86, .T. ) ;
#101 = PERSON_AND_ORGANIZATION_ROLE ( 'classification_officer' ) ;
#102 = DIRECTION ( 'NONE',  ( -4.295844677558971314E-31, 1.224646799147353207E-16, -1.000000000000000000 ) ) ;
#103 = DIRECTION ( 'NONE',  ( 0.000000000000000000, -0.000000000000000000, 1.000000000000000000 ) ) ;
#104 = APPROVAL ( #218, 'Î´Ö¸¶¨' ) ;
#105 = APPLICATION_CONTEXT ( 'configuration controlled 3d designs of mechanical parts and assemblies' ) ;
#106 = CIRCLE ( 'NONE', #225, 31.39999999999999858 ) ;
#107 = EDGE_CURVE ( 'NONE', #18, #95, #138, .T. ) ;
#108 = DATE_AND_TIME ( #31, #10 ) ;
#109 = CC_DESIGN_PERSON_AND_ORGANIZATION_ASSIGNMENT ( #40, #101, ( #28 ) ) ;
#110 = FACE_OUTER_BOUND ( 'NONE', #211, .T. ) ;
#111 = EDGE_LOOP ( 'NONE', ( #17, #176, #61 ) ) ;
#112 = DIRECTION ( 'NONE',  ( 1.000000000000000000, 0.000000000000000000, 0.000000000000000000 ) ) ;
#113 = AXIS2_PLACEMENT_3D ( 'NONE', #94, #2, #156 ) ;
#114 = DATE_AND_TIME ( #196, #153 ) ;
#115 = CARTESIAN_POINT ( 'NONE',  ( -32.65050343930666799, -4.127384496617016950E-15, 0.000000000000000000 ) ) ;
#116 = EDGE_LOOP ( 'NONE', ( #140, #34, #32 ) ) ;
#117 = DATE_TIME_ROLE ( 'classification_date' ) ;
#118 = DIRECTION ( 'NONE',  ( 0.000000000000000000, 0.000000000000000000, -1.000000000000000000 ) ) ;
#119 = DIRECTION ( 'NONE',  ( -3.535742116640626126E-15, 1.000000000000000000, 0.000000000000000000 ) ) ;
#120 = CIRCLE ( 'NONE', #190, 15.00000000000001243 ) ;
#121 = EDGE_CURVE ( 'NONE', #6, #159, #106, .T. ) ;
#122 = COORDINATED_UNIVERSAL_TIME_OFFSET ( 8, 0, .AHEAD. ) ;
#123 = ORIENTED_EDGE ( 'NONE', *, *, #206, .T. ) ;
#124 = CARTESIAN_POINT ( 'NONE',  ( -1.250503439306614784, -14.99999999999999289, 0.000000000000000000 ) ) ;
#125 = DIRECTION ( 'NONE',  ( -3.535742116640626126E-15, 1.000000000000000000, 0.000000000000000000 ) ) ;
#126 = DIRECTION ( 'NONE',  ( 3.512815038853035944E-15, -1.000000000000000000, 0.000000000000000000 ) ) ;
#127 = LOCAL_TIME ( 9, 7, 52.00000000000000000, #70 ) ;
#128 = PERSON_AND_ORGANIZATION ( #205, #136 ) ;
#129 = COORDINATED_UNIVERSAL_TIME_OFFSET ( 8, 0, .AHEAD. ) ;
#130 = CARTESIAN_POINT ( 'NONE',  ( 32.65050343930666799, 4.645705912397089798E-15, 0.000000000000000000 ) ) ;
#131 = EDGE_CURVE ( 'NONE', #163, #95, #162, .T. ) ;
#132 = DIRECTION ( 'NONE',  ( -4.295844677558971314E-31, 1.224646799147353207E-16, -1.000000000000000000 ) ) ;
#133 = CARTESIAN_POINT ( 'NONE',  ( 5.065000000000104308, -14.99999999999995204, 0.000000000000000000 ) ) ;
#134 = FACE_OUTER_BOUND ( 'NONE', #143, .T. ) ;
#135 = APPROVAL_PERSON_ORGANIZATION ( #170, #158, #14 ) ;
#136 = ORGANIZATION ( 'Î´Ö¸¶¨', 'Î´Ö¸¶¨', '' ) ;
#137 = CC_DESIGN_PERSON_AND_ORGANIZATION_ASSIGNMENT ( #155, #1, ( #222 ) ) ;
#138 = CIRCLE ( 'NONE', #195, 31.39999999999999858 ) ;
#139 = APPLICATION_PROTOCOL_DEFINITION ( 'international standard', 'config_control_design', 1994, #88 ) ;
#140 = ORIENTED_EDGE ( 'NONE', *, *, #121, .F. ) ;
#141 = PERSON_AND_ORGANIZATION ( #205, #136 ) ;
#142 = CARTESIAN_POINT ( 'NONE',  ( -32.65050343930666799, -4.127384496617016950E-15, 0.000000000000000000 ) ) ;
#143 = EDGE_LOOP ( 'NONE', ( #100, #3, #180, #23 ) ) ;
#144 = DIRECTION ( 'NONE',  ( 0.000000000000000000, -0.000000000000000000, 1.000000000000000000 ) ) ;
#145 = DATE_TIME_ROLE ( 'creation_date' ) ;
#146 = EDGE_CURVE ( 'NONE', #163, #6, #185, .T. ) ;
#147 = CLOSED_SHELL ( 'NONE', ( #12, #175, #63, #87, #201, #168 ) ) ;
#148 = DATE_AND_TIME ( #79, #90 ) ;
#149 = SPHERICAL_SURFACE ( 'NONE', #76, 31.39999999999999858 ) ;
#150 = VERTEX_POINT ( 'NONE', #21 ) ;
#151 = DIRECTION ( 'NONE',  ( 0.000000000000000000, 1.000000000000000000, 1.224646799147353207E-16 ) ) ;
#152 = CARTESIAN_POINT ( 'NONE',  ( 32.65050343930666799, 4.645705912397089798E-15, 0.000000000000000000 ) ) ;
#153 = LOCAL_TIME ( 9, 7, 52.00000000000000000, #57 ) ;
#154 = DIRECTION ( 'NONE',  ( 1.000000000000000000, 0.000000000000000000, 0.000000000000000000 ) ) ;
#155 = PERSON_AND_ORGANIZATION ( #205, #136 ) ;
#156 = DIRECTION ( 'NONE',  ( 3.527271067819513544E-15, -1.000000000000000000, 0.000000000000000000 ) ) ;
#157 = ORIENTED_EDGE ( 'NONE', *, *, #37, .F. ) ;
#158 = APPROVAL ( #47, 'Î´Ö¸¶¨' ) ;
#159 = VERTEX_POINT ( 'NONE', #199 ) ;
#160 = CARTESIAN_POINT ( 'NONE',  ( 32.65050343930666799, 4.645705912397089798E-15, 0.000000000000000000 ) ) ;
#161 = CALENDAR_DATE ( 2024, 11, 5 ) ;
#162 = LINE ( 'NONE', #220, #29 ) ;
#163 = VERTEX_POINT ( 'NONE', #99 ) ;
#164 = PERSON_AND_ORGANIZATION_ROLE ( 'creator' ) ;
#165 = SPHERICAL_SURFACE ( 'NONE', #45, 31.39999999999999858 ) ;
#166 = CARTESIAN_POINT ( 'NONE',  ( -5.065000000000003944, 15.00000000000000355, 0.000000000000000000 ) ) ;
#167 = CC_DESIGN_APPROVAL ( #158, ( #222 ) ) ;
#168 = ADVANCED_FACE ( 'NONE', ( #183 ), #149, .F. ) ;
#169 = AXIS2_PLACEMENT_3D ( 'NONE', #179, #38, #5 ) ;
#170 = PERSON_AND_ORGANIZATION ( #205, #136 ) ;
#171 = MECHANICAL_CONTEXT ( 'NONE', #88, 'mechanical' ) ;
#172 = SPHERICAL_SURFACE ( 'NONE', #11, 31.39999999999999858 ) ;
#173 = EDGE_LOOP ( 'NONE', ( #72, #217, #208 ) ) ;
#174 =( NAMED_UNIT ( * ) SI_UNIT ( $, .STERADIAN. ) SOLID_ANGLE_UNIT ( ) );
#175 = ADVANCED_FACE ( 'NONE', ( #134 ), #84, .T. ) ;
#176 = ORIENTED_EDGE ( 'NONE', *, *, #121, .T. ) ;
#177 = AXIS2_PLACEMENT_3D ( 'NONE', #41, #219, #58 ) ;
#178 = PERSON_AND_ORGANIZATION ( #205, #136 ) ;
#179 = CARTESIAN_POINT ( 'NONE',  ( 5.065000000000051017, 2.187167709042782943E-14, 0.000000000000000000 ) ) ;
#180 = ORIENTED_EDGE ( 'NONE', *, *, #186, .F. ) ;
#181 = APPROVAL_ROLE ( '' ) ;
#182 = FACE_OUTER_BOUND ( 'NONE', #173, .T. ) ;
#183 = FACE_OUTER_BOUND ( 'NONE', #116, .T. ) ;
#184 = CC_DESIGN_APPROVAL ( #43, ( #28 ) ) ;
#185 = CIRCLE ( 'NONE', #169, 14.99999999999997513 ) ;
#186 = EDGE_CURVE ( 'NONE', #150, #95, #120, .T. ) ;
#187 = ORIENTED_EDGE ( 'NONE', *, *, #146, .T. ) ;
#188 = DIRECTION ( 'NONE',  ( -1.000000000000000000, -3.507823382668297218E-15, -0.000000000000000000 ) ) ;
#189 = DIRECTION ( 'NONE',  ( 0.000000000000000000, 0.000000000000000000, 1.000000000000000000 ) ) ;
#190 = AXIS2_PLACEMENT_3D ( 'NONE', #96, #188, #193 ) ;
#191 = CARTESIAN_POINT ( 'NONE',  ( -32.65050343930666799, -4.127384496617016950E-15, 0.000000000000000000 ) ) ;
#192 = ORIENTED_EDGE ( 'NONE', *, *, #107, .T. ) ;
#193 = DIRECTION ( 'NONE',  ( 3.527271067819504866E-15, -1.000000000000000000, 0.000000000000000000 ) ) ;
#194 = MANIFOLD_SOLID_BREP ( 'Ðý×ª1', #147 ) ;
#195 = AXIS2_PLACEMENT_3D ( 'NONE', #115, #103, #81 ) ;
#196 = CALENDAR_DATE ( 2024, 11, 5 ) ;
#197 = APPROVAL_DATE_TIME ( #114, #104 ) ;
#198 = DIRECTION ( 'NONE',  ( -3.535742116640626126E-15, 1.000000000000000000, 0.000000000000000000 ) ) ;
#199 = CARTESIAN_POINT ( 'NONE',  ( 1.250503439306667408, -1.035772528287260871E-13, 0.000000000000000000 ) ) ;
#200 = DIRECTION ( 'NONE',  ( -1.000000000000000000, -3.507823382668297218E-15, -0.000000000000000000 ) ) ;
#201 = ADVANCED_FACE ( 'NONE', ( #75 ), #212, .T. ) ;
#202 = AXIS2_PLACEMENT_3D ( 'NONE', #73, #97, #126 ) ;
#203 = CC_DESIGN_PERSON_AND_ORGANIZATION_ASSIGNMENT ( #178, #164, ( #65 ) ) ;
#204 = DESIGN_CONTEXT ( 'detailed design', #105, 'design' ) ;
#205 = PERSON ( 'Î´Ö¸¶¨', 'Î´Ö¸¶¨', 'Î´Ö¸¶¨', ('Î´Ö¸¶¨'), ('Î´Ö¸¶¨'), ('Î´Ö¸¶¨') ) ;
#206 = EDGE_CURVE ( 'NONE', #6, #150, #35, .T. ) ;
#207 = PERSON_AND_ORGANIZATION_ROLE ( 'design_owner' ) ;
#208 = ORIENTED_EDGE ( 'NONE', *, *, #186, .T. ) ;
#209 =( LENGTH_UNIT ( ) NAMED_UNIT ( * ) SI_UNIT ( .MILLI., .METRE. ) );
#210 = CALENDAR_DATE ( 2024, 11, 5 ) ;
#211 = EDGE_LOOP ( 'NONE', ( #77, #192, #48 ) ) ;
#212 = CYLINDRICAL_SURFACE ( 'NONE', #202, 14.99999999999999289 ) ;
#213 = AXIS2_PLACEMENT_3D ( 'NONE', #160, #144, #112 ) ;
#214 = PERSON_AND_ORGANIZATION_ROLE ( 'design_supplier' ) ;
#215 = SHAPE_DEFINITION_REPRESENTATION ( #221, #78 ) ;
#216 = CARTESIAN_POINT ( 'NONE',  ( 32.65050343930666799, 4.645705912397089798E-15, 0.000000000000000000 ) ) ;
#217 = ORIENTED_EDGE ( 'NONE', *, *, #22, .T. ) ;
#218 = APPROVAL_STATUS ( 'not_yet_approved' ) ;
#219 = DIRECTION ( 'NONE',  ( -1.000000000000000000, -3.507823382668297218E-15, -0.000000000000000000 ) ) ;
#220 = CARTESIAN_POINT ( 'NONE',  ( -1.250503439306720255, 14.99999999999999289, 1.836970198721028800E-15 ) ) ;
#221 = PRODUCT_DEFINITION_SHAPE ( 'NONE', 'NONE',  #222 ) ;
#222 = PRODUCT_DEFINITION ( 'Î´Öª', '', #65, #204 ) ;
#223 = AXIS2_PLACEMENT_3D ( 'NONE', #62, #200, #50 ) ;
#224 = CC_DESIGN_SECURITY_CLASSIFICATION ( #28, ( #65 ) ) ;
#225 = AXIS2_PLACEMENT_3D ( 'NONE', #152, #132, #9 ) ;
#226 = EDGE_CURVE ( 'NONE', #163, #159, #89, .T. ) ;
#227 = APPLICATION_PROTOCOL_DEFINITION ( 'international standard', 'config_control_design', 1994, #105 ) ;
ENDSEC;
END-ISO-10303-21;
