ISO-10303-21;
HEADER;
FILE_DESCRIPTION (( 'STEP AP214' ),
    '1' );
FILE_NAME ('GL7AL2-025-012.STEP',
    '2024-07-21T09:29:54',
    ( '' ),
    ( '' ),
    'SwSTEP 2.0',
    'SolidWorks 2022',
    '' );
FILE_SCHEMA (( 'AUTOMOTIVE_DESIGN' ));
ENDSEC;

DATA;
#1 = PRESENTATION_STYLE_ASSIGNMENT (( #224 ) ) ;
#2 = FACE_OUTER_BOUND ( 'NONE', #306, .T. ) ;
#3 = DIRECTION ( 'NONE',  ( -1.224646799147353207E-16, -0.000000000000000000, -1.000000000000000000 ) ) ;
#4 = PRODUCT ( 'GL7AL2-025-012', 'GL7AL2-025-012', '', ( #269 ) ) ;
#5 = CARTESIAN_POINT ( 'NONE',  ( 0.000000000000000000, 0.000000000000000000, -11.63999999999999879 ) ) ;
#6 = STYLED_ITEM ( 'NONE', ( #1 ), #308 ) ;
#7 = UNCERTAINTY_MEASURE_WITH_UNIT (LENGTH_MEASURE( 1.000000000000000082E-05 ), #297, 'distance_accuracy_value', 'NONE');
#8 = CARTESIAN_POINT ( 'NONE',  ( -12.69999999999999929, 1.555301434917138433E-15, 0.2000000000000022593 ) ) ;
#9 = DIRECTION ( 'NONE',  ( 1.000000000000000000, 0.000000000000000000, 0.000000000000000000 ) ) ;
#10 = EDGE_CURVE ( 'NONE', #183, #304, #178, .T. ) ;
#11 = CARTESIAN_POINT ( 'NONE',  ( -12.69999999999999929, 0.000000000000000000, 1.800000000000000933 ) ) ;
#12 = EDGE_CURVE ( 'NONE', #42, #38, #226, .T. ) ;
#13 = AXIS2_PLACEMENT_3D ( 'NONE', #318, #263, #71 ) ;
#14 = EDGE_LOOP ( 'NONE', ( #89, #58, #189, #237 ) ) ;
#15 = LINE ( 'NONE', #84, #266 ) ;
#16 = ORIENTED_EDGE ( 'NONE', *, *, #254, .F. ) ;
#17 = AXIS2_PLACEMENT_3D ( 'NONE', #72, #148, #149 ) ;
#18 = VERTEX_POINT ( 'NONE', #48 ) ;
#19 = ORIENTED_EDGE ( 'NONE', *, *, #190, .F. ) ;
#20 = ORIENTED_EDGE ( 'NONE', *, *, #205, .T. ) ;
#21 = DIRECTION ( 'NONE',  ( -0.000000000000000000, -0.000000000000000000, 1.000000000000000000 ) ) ;
#22 = EDGE_CURVE ( 'NONE', #107, #255, #236, .T. ) ;
#23 = CIRCLE ( 'NONE', #75, 12.69999999999999929 ) ;
#24 = DIRECTION ( 'NONE',  ( -0.000000000000000000, -0.000000000000000000, -1.000000000000000000 ) ) ;
#25 = FILL_AREA_STYLE_COLOUR ( '', #59 ) ;
#26 = CARTESIAN_POINT ( 'NONE',  ( 10.53116202190871675, 1.409898002164361830E-15, 2.710422518807850345 ) ) ;
#27 =( LENGTH_UNIT ( ) NAMED_UNIT ( * ) SI_UNIT ( .MILLI., .METRE. ) );
#28 = DIRECTION ( 'NONE',  ( -1.000000000000000000, 0.000000000000000000, 1.235421698266492317E-16 ) ) ;
#29 = DIRECTION ( 'NONE',  ( 1.000000000000000000, 0.000000000000000000, -1.195183497228115281E-16 ) ) ;
#30 = FILL_AREA_STYLE ('',( #25 ) ) ;
#31 = CARTESIAN_POINT ( 'NONE',  ( 12.69999999999999929, 1.555301434917138433E-15, 5.665817307692314841 ) ) ;
#32 = CIRCLE ( 'NONE', #233, 17.80000000000000071 ) ;
#33 = LINE ( 'NONE', #125, #202 ) ;
#34 = EDGE_CURVE ( 'NONE', #286, #234, #127, .T. ) ;
#35 = DIRECTION ( 'NONE',  ( 0.7071067811865504593, 8.659560562354968603E-17, -0.7071067811865445751 ) ) ;
#36 = MECHANICAL_DESIGN_GEOMETRIC_PRESENTATION_REPRESENTATION (  '', ( #6 ), #109 ) ;
#37 = EDGE_LOOP ( 'NONE', ( #164, #112, #140 ) ) ;
#38 = VERTEX_POINT ( 'NONE', #96 ) ;
#39 = TOROIDAL_SURFACE ( 'NONE', #69, 12.69999999999999929, 3.665817307692316174 ) ;
#40 = EDGE_LOOP ( 'NONE', ( #19, #213, #238, #137 ) ) ;
#41 = CLOSED_SHELL ( 'NONE', ( #181, #97, #108, #311, #43, #166, #132, #53, #156, #64, #246 ) ) ;
#42 = VERTEX_POINT ( 'NONE', #26 ) ;
#43 = ADVANCED_FACE ( 'NONE', ( #68 ), #292, .T. ) ;
#44 = CARTESIAN_POINT ( 'NONE',  ( 0.000000000000000000, 0.000000000000000000, 0.000000000000000000 ) ) ;
#45 = DIRECTION ( 'NONE',  ( -1.224646799147353207E-16, -0.000000000000000000, -1.000000000000000000 ) ) ;
#46 = TOROIDAL_SURFACE ( 'NONE', #241, 12.69999999999999929, 3.665817307692316174 ) ;
#47 = LINE ( 'NONE', #115, #209 ) ;
#48 = CARTESIAN_POINT ( 'NONE',  ( 12.69999999999999929, 1.555301434917138433E-15, 1.799999999999998046 ) ) ;
#49 = DIRECTION ( 'NONE',  ( -0.000000000000000000, -0.000000000000000000, -1.000000000000000000 ) ) ;
#50 = SURFACE_SIDE_STYLE ('',( #313 ) ) ;
#51 = DIRECTION ( 'NONE',  ( 0.000000000000000000, 1.000000000000000000, -0.000000000000000000 ) ) ;
#52 = PRESENTATION_LAYER_ASSIGNMENT (  '', '', ( #191 ) ) ;
#53 = ADVANCED_FACE ( 'NONE', ( #196 ), #39, .F. ) ;
#54 = DIRECTION ( 'NONE',  ( 1.000000000000000000, 0.000000000000000000, -1.388420818220522958E-16 ) ) ;
#55 = AXIS2_PLACEMENT_3D ( 'NONE', #73, #146, #214 ) ;
#56 = CARTESIAN_POINT ( 'NONE',  ( -4.482252624637014068E-16, 0.000000000000000000, 2.005780284970554384 ) ) ;
#57 = DIRECTION ( 'NONE',  ( -1.000000000000000000, 0.000000000000000000, 0.000000000000000000 ) ) ;
#58 = ORIENTED_EDGE ( 'NONE', *, *, #34, .F. ) ;
#59 = COLOUR_RGB ( '',1.000000000000000000, 1.000000000000000000, 1.000000000000000000 ) ;
#60 = AXIS2_PLACEMENT_3D ( 'NONE', #177, #298, #9 ) ;
#61 = ORIENTED_EDGE ( 'NONE', *, *, #301, .T. ) ;
#62 = CARTESIAN_POINT ( 'NONE',  ( 0.000000000000000000, 0.000000000000000000, 5.665817307692315730 ) ) ;
#63 = EDGE_LOOP ( 'NONE', ( #16, #187, #61, #88 ) ) ;
#64 = ADVANCED_FACE ( 'NONE', ( #265 ), #250, .T. ) ;
#65 = EDGE_CURVE ( 'NONE', #18, #107, #47, .T. ) ;
#66 = ORIENTED_EDGE ( 'NONE', *, *, #270, .T. ) ;
#67 = DIRECTION ( 'NONE',  ( -0.000000000000000000, -0.000000000000000000, -1.000000000000000000 ) ) ;
#68 = FACE_OUTER_BOUND ( 'NONE', #208, .T. ) ;
#69 = AXIS2_PLACEMENT_3D ( 'NONE', #143, #45, #192 ) ;
#70 = APPLICATION_PROTOCOL_DEFINITION ( 'draft international standard', 'automotive_design', 1998, #289 ) ;
#71 = DIRECTION ( 'NONE',  ( 1.000000000000000000, 0.000000000000000000, -0.000000000000000000 ) ) ;
#72 = CARTESIAN_POINT ( 'NONE',  ( -12.69999999999999929, 0.000000000000000000, 5.665817307692317506 ) ) ;
#73 = CARTESIAN_POINT ( 'NONE',  ( 0.000000000000000000, 0.000000000000000000, 0.2000000000000022593 ) ) ;
#74 = EDGE_CURVE ( 'NONE', #304, #183, #219, .T. ) ;
#75 = AXIS2_PLACEMENT_3D ( 'NONE', #182, #135, #257 ) ;
#76 = FACE_OUTER_BOUND ( 'NONE', #85, .T. ) ;
#77 = CIRCLE ( 'NONE', #282, 3.665817307692316174 ) ;
#78 =( NAMED_UNIT ( * ) PLANE_ANGLE_UNIT ( ) SI_UNIT ( $, .RADIAN. ) );
#79 = DIRECTION ( 'NONE',  ( -1.000000000000000000, 0.000000000000000000, 1.388420818220515069E-16 ) ) ;
#80 = LINE ( 'NONE', #252, #296 ) ;
#81 = DIRECTION ( 'NONE',  ( -1.000000000000000000, 0.000000000000000000, 1.235421698266492317E-16 ) ) ;
#82 = ORIENTED_EDGE ( 'NONE', *, *, #74, .T. ) ;
#83 = AXIS2_PLACEMENT_3D ( 'NONE', #218, #317, #28 ) ;
#84 = CARTESIAN_POINT ( 'NONE',  ( 12.69999999999999929, 0.000000000000000000, 0.2000000000000022593 ) ) ;
#85 = EDGE_LOOP ( 'NONE', ( #284, #20, #186, #113 ) ) ;
#86 = EDGE_LOOP ( 'NONE', ( #287, #82 ) ) ;
#87 = EDGE_CURVE ( 'NONE', #286, #38, #111, .T. ) ;
#88 = ORIENTED_EDGE ( 'NONE', *, *, #180, .F. ) ;
#89 = ORIENTED_EDGE ( 'NONE', *, *, #205, .F. ) ;
#90 = FACE_OUTER_BOUND ( 'NONE', #86, .T. ) ;
#91 = SURFACE_STYLE_FILL_AREA ( #172 ) ;
#92 = AXIS2_PLACEMENT_3D ( 'NONE', #121, #273, #294 ) ;
#93 = DIRECTION ( 'NONE',  ( 0.000000000000000000, 1.000000000000000000, -0.000000000000000000 ) ) ;
#94 = AXIS2_PLACEMENT_3D ( 'NONE', #173, #268, #193 ) ;
#95 = DIRECTION ( 'NONE',  ( -0.000000000000000000, -0.000000000000000000, 1.000000000000000000 ) ) ;
#96 = CARTESIAN_POINT ( 'NONE',  ( -10.53116202190871675, 0.000000000000000000, 2.710422518807853010 ) ) ;
#97 = ADVANCED_FACE ( 'NONE', ( #169 ), #303, .T. ) ;
#98 = DIRECTION ( 'NONE',  ( -1.000000000000000000, 0.000000000000000000, 1.224646799147353207E-16 ) ) ;
#99 = DIRECTION ( 'NONE',  ( -1.224646799147352714E-16, 0.000000000000000000, -1.000000000000000000 ) ) ;
#100 = DIRECTION ( 'NONE',  ( 0.000000000000000000, -1.000000000000000000, 0.000000000000000000 ) ) ;
#101 = CIRCLE ( 'NONE', #280, 17.80000000000000426 ) ;
#102 = CARTESIAN_POINT ( 'NONE',  ( 12.49999999999999645, 0.000000000000000000, 0.000000000000000000 ) ) ;
#103 = AXIS2_PLACEMENT_3D ( 'NONE', #56, #99, #79 ) ;
#104 = DIRECTION ( 'NONE',  ( -0.7071067811865506814, 0.000000000000000000, -0.7071067811865443531 ) ) ;
#105 = CARTESIAN_POINT ( 'NONE',  ( 0.000000000000000000, 0.000000000000000000, 2.000000000000000000 ) ) ;
#106 = FACE_OUTER_BOUND ( 'NONE', #14, .T. ) ;
#107 = VERTEX_POINT ( 'NONE', #240 ) ;
#108 = ADVANCED_FACE ( 'NONE', ( #288 ), #200, .T. ) ;
#109 =( GEOMETRIC_REPRESENTATION_CONTEXT ( 3 ) GLOBAL_UNCERTAINTY_ASSIGNED_CONTEXT ( ( #259 ) ) GLOBAL_UNIT_ASSIGNED_CONTEXT ( ( #217, #244, #194 ) ) REPRESENTATION_CONTEXT ( 'NONE', 'WORKASPACE' ) );
#110 = ORIENTED_EDGE ( 'NONE', *, *, #123, .F. ) ;
#111 = CIRCLE ( 'NONE', #17, 3.665817307692316174 ) ;
#112 = ORIENTED_EDGE ( 'NONE', *, *, #122, .T. ) ;
#113 = ORIENTED_EDGE ( 'NONE', *, *, #278, .F. ) ;
#114 = ORIENTED_EDGE ( 'NONE', *, *, #65, .T. ) ;
#115 = CARTESIAN_POINT ( 'NONE',  ( 12.69999999999999929, 1.555301434917138433E-15, 2.000000000000000000 ) ) ;
#116 = DIRECTION ( 'NONE',  ( 1.000000000000000000, 0.000000000000000000, 0.000000000000000000 ) ) ;
#117 = MECHANICAL_DESIGN_GEOMETRIC_PRESENTATION_REPRESENTATION (  '', ( #191 ), #272 ) ;
#118 = APPLICATION_PROTOCOL_DEFINITION ( 'draft international standard', 'automotive_design', 1998, #157 ) ;
#119 = CARTESIAN_POINT ( 'NONE',  ( 0.000000000000000000, 0.000000000000000000, -11.63999999999999879 ) ) ;
#120 = LINE ( 'NONE', #220, #204 ) ;
#121 = CARTESIAN_POINT ( 'NONE',  ( 0.000000000000000000, 0.000000000000000000, 0.000000000000000000 ) ) ;
#122 = EDGE_CURVE ( 'NONE', #212, #42, #32, .T. ) ;
#123 = EDGE_CURVE ( 'NONE', #235, #255, #120, .T. ) ;
#124 = DIRECTION ( 'NONE',  ( 1.000000000000000000, 0.000000000000000000, 0.000000000000000000 ) ) ;
#125 = CARTESIAN_POINT ( 'NONE',  ( -12.49421971502944295, 0.000000000000000000, 2.005780284970556160 ) ) ;
#126 = CARTESIAN_POINT ( 'NONE',  ( 0.000000000000000000, 0.000000000000000000, 1.799999999999999600 ) ) ;
#127 = CIRCLE ( 'NONE', #94, 12.49421971502937367 ) ;
#128 = AXIS2_PLACEMENT_3D ( 'NONE', #153, #299, #225 ) ;
#129 = PRESENTATION_STYLE_ASSIGNMENT (( #229 ) ) ;
#130 = CARTESIAN_POINT ( 'NONE',  ( 1.089935651241144357E-15, 0.000000000000000000, 6.160000000000000142 ) ) ;
#131 = CARTESIAN_POINT ( 'NONE',  ( -4.482252624638533612E-16, 0.000000000000000000, 2.005780284969311822 ) ) ;
#132 = ADVANCED_FACE ( 'NONE', ( #90 ), #167, .F. ) ;
#133 = ORIENTED_EDGE ( 'NONE', *, *, #12, .T. ) ;
#134 = AXIS2_PLACEMENT_3D ( 'NONE', #5, #51, #277 ) ;
#135 = DIRECTION ( 'NONE',  ( -1.224646799147352714E-16, 0.000000000000000000, -1.000000000000000000 ) ) ;
#136 = EDGE_LOOP ( 'NONE', ( #258, #307, #133, #165 ) ) ;
#137 = ORIENTED_EDGE ( 'NONE', *, *, #247, .T. ) ;
#138 = AXIS2_PLACEMENT_3D ( 'NONE', #291, #21, #124 ) ;
#139 = ORIENTED_EDGE ( 'NONE', *, *, #12, .F. ) ;
#140 = ORIENTED_EDGE ( 'NONE', *, *, #247, .F. ) ;
#141 = DIRECTION ( 'NONE',  ( -0.000000000000000000, -0.000000000000000000, -1.000000000000000000 ) ) ;
#142 = MANIFOLD_SOLID_BREP ( 'µ¹½Ç2', #41 ) ;
#143 = CARTESIAN_POINT ( 'NONE',  ( 0.000000000000000000, 0.000000000000000000, 5.665817307692315730 ) ) ;
#144 = DIRECTION ( 'NONE',  ( 0.000000000000000000, 0.000000000000000000, -1.000000000000000000 ) ) ;
#145 =( GEOMETRIC_REPRESENTATION_CONTEXT ( 3 ) GLOBAL_UNCERTAINTY_ASSIGNED_CONTEXT ( ( #174 ) ) GLOBAL_UNIT_ASSIGNED_CONTEXT ( ( #27, #197, #199 ) ) REPRESENTATION_CONTEXT ( 'NONE', 'WORKASPACE' ) );
#146 = DIRECTION ( 'NONE',  ( -0.000000000000000000, -0.000000000000000000, 1.000000000000000000 ) ) ;
#147 = AXIS2_PLACEMENT_3D ( 'NONE', #131, #227, #54 ) ;
#148 = DIRECTION ( 'NONE',  ( 0.000000000000000000, -1.000000000000000000, 0.000000000000000000 ) ) ;
#149 = DIRECTION ( 'NONE',  ( 0.000000000000000000, 0.000000000000000000, -1.000000000000000000 ) ) ;
#150 = DIRECTION ( 'NONE',  ( -1.224646799147353207E-16, -0.000000000000000000, -1.000000000000000000 ) ) ;
#151 = COLOUR_RGB ( '',1.000000000000000000, 1.000000000000000000, 1.000000000000000000 ) ;
#152 = DIRECTION ( 'NONE',  ( -0.7071067811865474617, 8.659560562354932858E-17, 0.7071067811865474617 ) ) ;
#153 = CARTESIAN_POINT ( 'NONE',  ( -4.482252624637014068E-16, 0.000000000000000000, 2.005780284970554384 ) ) ;
#154 = AXIS2_PLACEMENT_3D ( 'NONE', #245, #267, #198 ) ;
#155 =( NAMED_UNIT ( * ) SI_UNIT ( $, .STERADIAN. ) SOLID_ANGLE_UNIT ( ) );
#156 = ADVANCED_FACE ( 'NONE', ( #2 ), #179, .T. ) ;
#157 = APPLICATION_CONTEXT ( 'automotive_design' ) ;
#158 = CONICAL_SURFACE ( 'NONE', #128, 12.49421971502944295, 0.7853981633974524978 ) ;
#159 = EDGE_LOOP ( 'NONE', ( #262, #210, #261, #188 ) ) ;
#160 = AXIS2_PLACEMENT_3D ( 'NONE', #105, #275, #57 ) ;
#161 = ORIENTED_EDGE ( 'NONE', *, *, #123, .T. ) ;
#162 = ORIENTED_EDGE ( 'NONE', *, *, #316, .T. ) ;
#163 = FACE_OUTER_BOUND ( 'NONE', #136, .T. ) ;
#164 = ORIENTED_EDGE ( 'NONE', *, *, #316, .F. ) ;
#165 = ORIENTED_EDGE ( 'NONE', *, *, #87, .F. ) ;
#166 = ADVANCED_FACE ( 'NONE', ( #203 ), #293, .T. ) ;
#167 = PLANE ( 'NONE',  #13 ) ;
#168 = AXIS2_PLACEMENT_3D ( 'NONE', #310, #93, #175 ) ;
#169 = FACE_OUTER_BOUND ( 'NONE', #159, .T. ) ;
#170 = SHAPE_DEFINITION_REPRESENTATION ( #228, #308 ) ;
#171 = AXIS2_PLACEMENT_3D ( 'NONE', #249, #150, #81 ) ;
#172 = FILL_AREA_STYLE ('',( #312 ) ) ;
#173 = CARTESIAN_POINT ( 'NONE',  ( -4.482252624638533612E-16, 0.000000000000000000, 2.005780284969311822 ) ) ;
#174 = UNCERTAINTY_MEASURE_WITH_UNIT (LENGTH_MEASURE( 1.000000000000000082E-05 ), #27, 'distance_accuracy_value', 'NONE');
#175 = DIRECTION ( 'NONE',  ( -1.000000000000000000, 0.000000000000000000, 9.745637505487680998E-17 ) ) ;
#176 = CIRCLE ( 'NONE', #60, 12.69999999999999929 ) ;
#177 = CARTESIAN_POINT ( 'NONE',  ( 0.000000000000000000, 0.000000000000000000, 0.2000000000000022593 ) ) ;
#178 = CIRCLE ( 'NONE', #195, 12.49999999999999645 ) ;
#179 = SPHERICAL_SURFACE ( 'NONE', #134, 17.80000000000000071 ) ;
#180 = EDGE_CURVE ( 'NONE', #255, #107, #176, .T. ) ;
#181 = ADVANCED_FACE ( 'NONE', ( #76 ), #216, .T. ) ;
#182 = CARTESIAN_POINT ( 'NONE',  ( 0.000000000000000000, 0.000000000000000000, 1.799999999999999600 ) ) ;
#183 = VERTEX_POINT ( 'NONE', #102 ) ;
#184 = CARTESIAN_POINT ( 'NONE',  ( 0.000000000000000000, 0.000000000000000000, -11.63999999999999879 ) ) ;
#185 = AXIS2_PLACEMENT_3D ( 'NONE', #126, #248, #29 ) ;
#186 = ORIENTED_EDGE ( 'NONE', *, *, #270, .F. ) ;
#187 = ORIENTED_EDGE ( 'NONE', *, *, #10, .F. ) ;
#188 = ORIENTED_EDGE ( 'NONE', *, *, #301, .F. ) ;
#189 = ORIENTED_EDGE ( 'NONE', *, *, #278, .T. ) ;
#190 = EDGE_CURVE ( 'NONE', #234, #42, #77, .T. ) ;
#191 = STYLED_ITEM ( 'NONE', ( #129 ), #142 ) ;
#192 = DIRECTION ( 'NONE',  ( -1.000000000000000000, 0.000000000000000000, 1.224646799147353207E-16 ) ) ;
#193 = DIRECTION ( 'NONE',  ( 1.000000000000000000, 0.000000000000000000, -1.388420818220522958E-16 ) ) ;
#194 =( NAMED_UNIT ( * ) SI_UNIT ( $, .STERADIAN. ) SOLID_ANGLE_UNIT ( ) );
#195 = AXIS2_PLACEMENT_3D ( 'NONE', #44, #49, #314 ) ;
#196 = FACE_OUTER_BOUND ( 'NONE', #40, .T. ) ;
#197 =( NAMED_UNIT ( * ) PLANE_ANGLE_UNIT ( ) SI_UNIT ( $, .RADIAN. ) );
#198 = DIRECTION ( 'NONE',  ( 1.000000000000000000, 0.000000000000000000, 0.000000000000000000 ) ) ;
#199 =( NAMED_UNIT ( * ) SI_UNIT ( $, .STERADIAN. ) SOLID_ANGLE_UNIT ( ) );
#200 = SPHERICAL_SURFACE ( 'NONE', #168, 17.80000000000000071 ) ;
#201 = LINE ( 'NONE', #8, #215 ) ;
#202 = VECTOR ( 'NONE', #104, 1000.000000000000114 ) ;
#203 = FACE_OUTER_BOUND ( 'NONE', #302, .T. ) ;
#204 = VECTOR ( 'NONE', #67, 1000.000000000000000 ) ;
#205 = EDGE_CURVE ( 'NONE', #234, #18, #80, .T. ) ;
#206 = DIRECTION ( 'NONE',  ( -1.000000000000000000, -1.224646799147353454E-16, 0.000000000000000000 ) ) ;
#207 = PRODUCT_DEFINITION_FORMATION_WITH_SPECIFIED_SOURCE ( 'ÈÎºÎ', '', #4, .NOT_KNOWN. ) ;
#208 = EDGE_LOOP ( 'NONE', ( #66, #114, #279, #110 ) ) ;
#209 = VECTOR ( 'NONE', #24, 1000.000000000000000 ) ;
#210 = ORIENTED_EDGE ( 'NONE', *, *, #254, .T. ) ;
#211 = DIRECTION ( 'NONE',  ( 0.7071067811865474617, 0.000000000000000000, 0.7071067811865474617 ) ) ;
#212 = VERTEX_POINT ( 'NONE', #130 ) ;
#213 = ORIENTED_EDGE ( 'NONE', *, *, #223, .T. ) ;
#214 = DIRECTION ( 'NONE',  ( 1.000000000000000000, 0.000000000000000000, 0.000000000000000000 ) ) ;
#215 = VECTOR ( 'NONE', #152, 1000.000000000000114 ) ;
#216 = CONICAL_SURFACE ( 'NONE', #103, 12.49421971502944295, 0.7853981633974524978 ) ;
#217 =( LENGTH_UNIT ( ) NAMED_UNIT ( * ) SI_UNIT ( .MILLI., .METRE. ) );
#218 = CARTESIAN_POINT ( 'NONE',  ( 8.700166637002371198E-17, 0.000000000000000000, 2.710422518807851677 ) ) ;
#219 = CIRCLE ( 'NONE', #154, 12.49999999999999645 ) ;
#220 = CARTESIAN_POINT ( 'NONE',  ( -12.69999999999999929, 0.000000000000000000, 2.000000000000000000 ) ) ;
#221 = CARTESIAN_POINT ( 'NONE',  ( 0.000000000000000000, 0.000000000000000000, 2.000000000000000000 ) ) ;
#222 = CARTESIAN_POINT ( 'NONE',  ( -12.49421971504045636, 0.000000000000000000, 2.005780284969313598 ) ) ;
#223 = EDGE_CURVE ( 'NONE', #234, #286, #256, .T. ) ;
#224 = SURFACE_STYLE_USAGE ( .BOTH. , #50 ) ;
#225 = DIRECTION ( 'NONE',  ( -1.000000000000000000, 0.000000000000000000, 1.388420818220515069E-16 ) ) ;
#226 = CIRCLE ( 'NONE', #83, 10.53116202190871675 ) ;
#227 = DIRECTION ( 'NONE',  ( 1.224646799147352714E-16, -0.000000000000000000, 1.000000000000000000 ) ) ;
#228 = PRODUCT_DEFINITION_SHAPE ( 'NONE', 'NONE',  #276 ) ;
#229 = SURFACE_STYLE_USAGE ( .BOTH. , #274 ) ;
#230 = CARTESIAN_POINT ( 'NONE',  ( 12.49421971504045636, 1.530100618186805222E-15, 2.005780284969310490 ) ) ;
#231 = PRODUCT_RELATED_PRODUCT_CATEGORY ( 'part', '', ( #4 ) ) ;
#232 = ORIENTED_EDGE ( 'NONE', *, *, #122, .F. ) ;
#233 = AXIS2_PLACEMENT_3D ( 'NONE', #119, #290, #242 ) ;
#234 = VERTEX_POINT ( 'NONE', #230 ) ;
#235 = VERTEX_POINT ( 'NONE', #11 ) ;
#236 = CIRCLE ( 'NONE', #264, 12.69999999999999929 ) ;
#237 = ORIENTED_EDGE ( 'NONE', *, *, #300, .F. ) ;
#238 = ORIENTED_EDGE ( 'NONE', *, *, #87, .T. ) ;
#239 = DIRECTION ( 'NONE',  ( -1.000000000000000000, 0.000000000000000000, 0.000000000000000000 ) ) ;
#240 = CARTESIAN_POINT ( 'NONE',  ( 12.69999999999999929, 1.555301434917138433E-15, 0.2000000000000022593 ) ) ;
#241 = AXIS2_PLACEMENT_3D ( 'NONE', #62, #3, #98 ) ;
#242 = DIRECTION ( 'NONE',  ( -1.000000000000000000, -1.224646799147353207E-16, 0.000000000000000000 ) ) ;
#243 = CARTESIAN_POINT ( 'NONE',  ( 0.000000000000000000, 0.000000000000000000, 0.2000000000000022593 ) ) ;
#244 =( NAMED_UNIT ( * ) PLANE_ANGLE_UNIT ( ) SI_UNIT ( $, .RADIAN. ) );
#245 = CARTESIAN_POINT ( 'NONE',  ( 0.000000000000000000, 0.000000000000000000, 0.000000000000000000 ) ) ;
#246 = ADVANCED_FACE ( 'NONE', ( #106 ), #158, .T. ) ;
#247 = EDGE_CURVE ( 'NONE', #38, #42, #305, .T. ) ;
#248 = DIRECTION ( 'NONE',  ( -1.224646799147352714E-16, 0.000000000000000000, -1.000000000000000000 ) ) ;
#249 = CARTESIAN_POINT ( 'NONE',  ( 8.700166637002371198E-17, 0.000000000000000000, 2.710422518807851677 ) ) ;
#250 = CONICAL_SURFACE ( 'NONE', #138, 12.69999999999999929, 0.7853981633974482790 ) ;
#251 = DIRECTION ( 'NONE',  ( -1.224646799147353207E-16, 1.000000000000000000, 1.499759782661857608E-32 ) ) ;
#252 = CARTESIAN_POINT ( 'NONE',  ( 12.49421971502944295, 1.530100618185456270E-15, 2.005780284970552607 ) ) ;
#253 = PRESENTATION_LAYER_ASSIGNMENT (  '', '', ( #6 ) ) ;
#254 = EDGE_CURVE ( 'NONE', #304, #255, #201, .T. ) ;
#255 = VERTEX_POINT ( 'NONE', #271 ) ;
#256 = CIRCLE ( 'NONE', #147, 12.49421971502937367 ) ;
#257 = DIRECTION ( 'NONE',  ( 1.000000000000000000, 0.000000000000000000, -1.195183497228115281E-16 ) ) ;
#258 = ORIENTED_EDGE ( 'NONE', *, *, #34, .T. ) ;
#259 = UNCERTAINTY_MEASURE_WITH_UNIT (LENGTH_MEASURE( 1.000000000000000082E-05 ), #217, 'distance_accuracy_value', 'NONE');
#260 = ORIENTED_EDGE ( 'NONE', *, *, #65, .F. ) ;
#261 = ORIENTED_EDGE ( 'NONE', *, *, #22, .F. ) ;
#262 = ORIENTED_EDGE ( 'NONE', *, *, #74, .F. ) ;
#263 = DIRECTION ( 'NONE',  ( 0.000000000000000000, 0.000000000000000000, 1.000000000000000000 ) ) ;
#264 = AXIS2_PLACEMENT_3D ( 'NONE', #243, #95, #116 ) ;
#265 = FACE_OUTER_BOUND ( 'NONE', #63, .T. ) ;
#266 = VECTOR ( 'NONE', #211, 1000.000000000000114 ) ;
#267 = DIRECTION ( 'NONE',  ( -0.000000000000000000, -0.000000000000000000, -1.000000000000000000 ) ) ;
#268 = DIRECTION ( 'NONE',  ( 1.224646799147352714E-16, -0.000000000000000000, 1.000000000000000000 ) ) ;
#269 = PRODUCT_CONTEXT ( 'NONE', #157, 'mechanical' ) ;
#270 = EDGE_CURVE ( 'NONE', #235, #18, #295, .T. ) ;
#271 = CARTESIAN_POINT ( 'NONE',  ( -12.69999999999999929, 0.000000000000000000, 0.2000000000000022593 ) ) ;
#272 =( GEOMETRIC_REPRESENTATION_CONTEXT ( 3 ) GLOBAL_UNCERTAINTY_ASSIGNED_CONTEXT ( ( #7 ) ) GLOBAL_UNIT_ASSIGNED_CONTEXT ( ( #297, #78, #155 ) ) REPRESENTATION_CONTEXT ( 'NONE', 'WORKASPACE' ) );
#273 = DIRECTION ( 'NONE',  ( 0.000000000000000000, 0.000000000000000000, 1.000000000000000000 ) ) ;
#274 = SURFACE_SIDE_STYLE ('',( #91 ) ) ;
#275 = DIRECTION ( 'NONE',  ( -0.000000000000000000, -0.000000000000000000, -1.000000000000000000 ) ) ;
#276 = PRODUCT_DEFINITION ( 'Î´Öª', '', #207, #285 ) ;
#277 = DIRECTION ( 'NONE',  ( -1.000000000000000000, 0.000000000000000000, 9.745637505487680998E-17 ) ) ;
#278 = EDGE_CURVE ( 'NONE', #286, #235, #33, .T. ) ;
#279 = ORIENTED_EDGE ( 'NONE', *, *, #22, .T. ) ;
#280 = AXIS2_PLACEMENT_3D ( 'NONE', #184, #100, #144 ) ;
#281 = ORIENTED_EDGE ( 'NONE', *, *, #300, .T. ) ;
#282 = AXIS2_PLACEMENT_3D ( 'NONE', #31, #251, #206 ) ;
#283 = CARTESIAN_POINT ( 'NONE',  ( -12.49999999999999645, 1.543054966925664878E-15, 0.000000000000000000 ) ) ;
#284 = ORIENTED_EDGE ( 'NONE', *, *, #223, .F. ) ;
#285 = PRODUCT_DEFINITION_CONTEXT ( 'detailed design', #289, 'design' ) ;
#286 = VERTEX_POINT ( 'NONE', #222 ) ;
#287 = ORIENTED_EDGE ( 'NONE', *, *, #10, .T. ) ;
#288 = FACE_OUTER_BOUND ( 'NONE', #37, .T. ) ;
#289 = APPLICATION_CONTEXT ( 'automotive_design' ) ;
#290 = DIRECTION ( 'NONE',  ( -1.224646799147353207E-16, 1.000000000000000000, 1.499759782661857608E-32 ) ) ;
#291 = CARTESIAN_POINT ( 'NONE',  ( 0.000000000000000000, 0.000000000000000000, 0.2000000000000022593 ) ) ;
#292 = CYLINDRICAL_SURFACE ( 'NONE', #315, 12.69999999999999929 ) ;
#293 = CYLINDRICAL_SURFACE ( 'NONE', #160, 12.69999999999999929 ) ;
#294 = DIRECTION ( 'NONE',  ( 1.000000000000000000, 0.000000000000000000, 0.000000000000000000 ) ) ;
#295 = CIRCLE ( 'NONE', #185, 12.69999999999999929 ) ;
#296 = VECTOR ( 'NONE', #35, 1000.000000000000114 ) ;
#297 =( LENGTH_UNIT ( ) NAMED_UNIT ( * ) SI_UNIT ( .MILLI., .METRE. ) );
#298 = DIRECTION ( 'NONE',  ( -0.000000000000000000, -0.000000000000000000, 1.000000000000000000 ) ) ;
#299 = DIRECTION ( 'NONE',  ( -1.224646799147352714E-16, 0.000000000000000000, -1.000000000000000000 ) ) ;
#300 = EDGE_CURVE ( 'NONE', #18, #235, #23, .T. ) ;
#301 = EDGE_CURVE ( 'NONE', #183, #107, #15, .T. ) ;
#302 = EDGE_LOOP ( 'NONE', ( #260, #281, #161, #309 ) ) ;
#303 = CONICAL_SURFACE ( 'NONE', #55, 12.69999999999999929, 0.7853981633974482790 ) ;
#304 = VERTEX_POINT ( 'NONE', #283 ) ;
#305 = CIRCLE ( 'NONE', #171, 10.53116202190871675 ) ;
#306 = EDGE_LOOP ( 'NONE', ( #232, #162, #139 ) ) ;
#307 = ORIENTED_EDGE ( 'NONE', *, *, #190, .T. ) ;
#308 = ADVANCED_BREP_SHAPE_REPRESENTATION ( 'GL7AL2-025-012', ( #142, #92 ), #145 ) ;
#309 = ORIENTED_EDGE ( 'NONE', *, *, #180, .T. ) ;
#310 = CARTESIAN_POINT ( 'NONE',  ( 0.000000000000000000, 0.000000000000000000, -11.63999999999999879 ) ) ;
#311 = ADVANCED_FACE ( 'NONE', ( #163 ), #46, .F. ) ;
#312 = FILL_AREA_STYLE_COLOUR ( '', #151 ) ;
#313 = SURFACE_STYLE_FILL_AREA ( #30 ) ;
#314 = DIRECTION ( 'NONE',  ( 1.000000000000000000, 0.000000000000000000, 0.000000000000000000 ) ) ;
#315 = AXIS2_PLACEMENT_3D ( 'NONE', #221, #141, #239 ) ;
#316 = EDGE_CURVE ( 'NONE', #212, #38, #101, .T. ) ;
#317 = DIRECTION ( 'NONE',  ( -1.224646799147353207E-16, -0.000000000000000000, -1.000000000000000000 ) ) ;
#318 = CARTESIAN_POINT ( 'NONE',  ( 0.000000000000000000, 0.000000000000000000, 0.000000000000000000 ) ) ;
ENDSEC;
END-ISO-10303-21;
