ISO-10303-21;
HEADER;
FILE_DESCRIPTION (( 'STEP AP214' ),
    '1' );
FILE_NAME ('GL7AL2-025-050-IR2.STEP',
    '2024-07-21T10:00:22',
    ( '' ),
    ( '' ),
    'SwSTEP 2.0',
    'SolidWorks 2022',
    '' );
FILE_SCHEMA (( 'AUTOMOTIVE_DESIGN' ));
ENDSEC;

DATA;
#1 = ORIENTED_EDGE ( 'NONE', *, *, #25, .T. ) ;
#2 = ADVANCED_FACE ( 'NONE', ( #91 ), #26, .T. ) ;
#3 = CARTESIAN_POINT ( 'NONE',  ( 0.000000000000000000, 0.000000000000000000, 0.000000000000000000 ) ) ;
#4 = AXIS2_PLACEMENT_3D ( 'NONE', #68, #92, #123 ) ;
#5 = ADVANCED_FACE ( 'NONE', ( #231 ), #239, .T. ) ;
#6 = EDGE_LOOP ( 'NONE', ( #29, #36, #63, #132 ) ) ;
#7 = ORIENTED_EDGE ( 'NONE', *, *, #287, .T. ) ;
#8 = CARTESIAN_POINT ( 'NONE',  ( 12.70000000000000107, 1.555301434917138630E-15, 5.038228070174832318 ) ) ;
#9 = VERTEX_POINT ( 'NONE', #296 ) ;
#10 = FILL_AREA_STYLE ('',( #234 ) ) ;
#11 = AXIS2_PLACEMENT_3D ( 'NONE', #47, #249, #310 ) ;
#12 = EDGE_LOOP ( 'NONE', ( #46, #205, #177 ) ) ;
#13 = DIRECTION ( 'NONE',  ( 0.000000000000000000, 0.000000000000000000, -1.000000000000000000 ) ) ;
#14 = CARTESIAN_POINT ( 'NONE',  ( -12.49999999999999645, 1.543054966925664878E-15, 0.000000000000000000 ) ) ;
#15 = VECTOR ( 'NONE', #101, 1000.000000000000114 ) ;
#16 =( NAMED_UNIT ( * ) PLANE_ANGLE_UNIT ( ) SI_UNIT ( $, .RADIAN. ) );
#17 = CONICAL_SURFACE ( 'NONE', #79, 12.69999999999999929, 0.7853981633974482790 ) ;
#18 = ADVANCED_FACE ( 'NONE', ( #259 ), #236, .F. ) ;
#19 = DIRECTION ( 'NONE',  ( -0.000000000000000000, -0.000000000000000000, -1.000000000000000000 ) ) ;
#20 = DIRECTION ( 'NONE',  ( 1.000000000000000000, 0.000000000000000000, 0.000000000000000000 ) ) ;
#21 = CIRCLE ( 'NONE', #11, 1.178228070174831110 ) ;
#22 = DIRECTION ( 'NONE',  ( -0.000000000000000000, -0.000000000000000000, 1.000000000000000000 ) ) ;
#23 = DIRECTION ( 'NONE',  ( 1.000000000000000000, 0.000000000000000000, -1.038423052289620029E-16 ) ) ;
#24 = AXIS2_PLACEMENT_3D ( 'NONE', #282, #103, #49 ) ;
#25 = EDGE_CURVE ( 'NONE', #35, #294, #107, .T. ) ;
#26 = SPHERICAL_SURFACE ( 'NONE', #59, 70.13299999999999557 ) ;
#27 = EDGE_CURVE ( 'NONE', #294, #251, #115, .T. ) ;
#28 = CARTESIAN_POINT ( 'NONE',  ( 12.69999999999999929, 0.000000000000000000, 0.2000000000000022593 ) ) ;
#29 = ORIENTED_EDGE ( 'NONE', *, *, #311, .F. ) ;
#30 = SURFACE_STYLE_USAGE ( .BOTH. , #136 ) ;
#31 = ORIENTED_EDGE ( 'NONE', *, *, #139, .F. ) ;
#32 = SURFACE_STYLE_FILL_AREA ( #10 ) ;
#33 = CIRCLE ( 'NONE', #252, 1.178228070174831110 ) ;
#34 = MANIFOLD_SOLID_BREP ( 'µ¹½Ç2', #96 ) ;
#35 = VERTEX_POINT ( 'NONE', #281 ) ;
#36 = ORIENTED_EDGE ( 'NONE', *, *, #264, .T. ) ;
#37 = DIRECTION ( 'NONE',  ( -1.203161767583364195E-16, 0.000000000000000000, -1.000000000000000000 ) ) ;
#38 =( NAMED_UNIT ( * ) SI_UNIT ( $, .STERADIAN. ) SOLID_ANGLE_UNIT ( ) );
#39 = CARTESIAN_POINT ( 'NONE',  ( 0.000000000000000000, 0.000000000000000000, -65.13299999999999557 ) ) ;
#40 = UNCERTAINTY_MEASURE_WITH_UNIT (LENGTH_MEASURE( 1.000000000000000082E-05 ), #208, 'distance_accuracy_value', 'NONE');
#41 = CARTESIAN_POINT ( 'NONE',  ( 0.000000000000000000, 0.000000000000000000, 0.000000000000000000 ) ) ;
#42 = CARTESIAN_POINT ( 'NONE',  ( 0.000000000000000000, 0.000000000000000000, -65.13299999999999557 ) ) ;
#43 = CIRCLE ( 'NONE', #4, 12.52902277269302900 ) ;
#44 = LINE ( 'NONE', #145, #246 ) ;
#45 = CARTESIAN_POINT ( 'NONE',  ( 0.000000000000000000, 0.000000000000000000, 3.859999999999999876 ) ) ;
#46 = ORIENTED_EDGE ( 'NONE', *, *, #93, .F. ) ;
#47 = CARTESIAN_POINT ( 'NONE',  ( -12.70000000000000107, 0.000000000000000000, 5.038228070174835871 ) ) ;
#48 = COLOUR_RGB ( '',1.000000000000000000, 1.000000000000000000, 1.000000000000000000 ) ;
#49 = DIRECTION ( 'NONE',  ( 1.000000000000000000, 0.000000000000000000, -1.365923996832131609E-16 ) ) ;
#50 = AXIS2_PLACEMENT_3D ( 'NONE', #45, #201, #272 ) ;
#51 = EDGE_CURVE ( 'NONE', #9, #35, #121, .T. ) ;
#52 = ORIENTED_EDGE ( 'NONE', *, *, #104, .F. ) ;
#53 = EDGE_CURVE ( 'NONE', #9, #303, #43, .T. ) ;
#54 = CARTESIAN_POINT ( 'NONE',  ( 12.69999999999999929, 1.555301434917138433E-15, 3.674588596773655347 ) ) ;
#55 = VERTEX_POINT ( 'NONE', #187 ) ;
#56 = CARTESIAN_POINT ( 'NONE',  ( 12.69999999999999929, 1.555301434917138433E-15, 0.2000000000000022593 ) ) ;
#57 = EDGE_LOOP ( 'NONE', ( #197, #31, #7, #250 ) ) ;
#58 =( LENGTH_UNIT ( ) NAMED_UNIT ( * ) SI_UNIT ( .MILLI., .METRE. ) );
#59 = AXIS2_PLACEMENT_3D ( 'NONE', #130, #223, #106 ) ;
#60 = ORIENTED_EDGE ( 'NONE', *, *, #126, .F. ) ;
#61 =( NAMED_UNIT ( * ) SI_UNIT ( $, .STERADIAN. ) SOLID_ANGLE_UNIT ( ) );
#62 = AXIS2_PLACEMENT_3D ( 'NONE', #195, #293, #274 ) ;
#63 = ORIENTED_EDGE ( 'NONE', *, *, #149, .T. ) ;
#64 = DIRECTION ( 'NONE',  ( -0.000000000000000000, -0.000000000000000000, -1.000000000000000000 ) ) ;
#65 = APPLICATION_CONTEXT ( 'automotive_design' ) ;
#66 = EDGE_CURVE ( 'NONE', #275, #299, #129, .T. ) ;
#67 = CIRCLE ( 'NONE', #161, 12.69999999999999929 ) ;
#68 = CARTESIAN_POINT ( 'NONE',  ( -1.402593628302662339E-16, 0.000000000000000000, 3.872471589132496117 ) ) ;
#69 = EDGE_CURVE ( 'NONE', #35, #301, #44, .T. ) ;
#70 = DIRECTION ( 'NONE',  ( 0.000000000000000000, 1.000000000000000000, -0.000000000000000000 ) ) ;
#71 = SURFACE_SIDE_STYLE ('',( #237 ) ) ;
#72 = DIRECTION ( 'NONE',  ( -1.224646799147353207E-16, 1.000000000000000000, 1.473448207527437814E-32 ) ) ;
#73 = AXIS2_PLACEMENT_3D ( 'NONE', #42, #70, #216 ) ;
#74 = CARTESIAN_POINT ( 'NONE',  ( 0.000000000000000000, 0.000000000000000000, 0.2000000000000022593 ) ) ;
#75 = CARTESIAN_POINT ( 'NONE',  ( 0.000000000000000000, 0.000000000000000000, 0.2000000000000022593 ) ) ;
#76 = ORIENTED_EDGE ( 'NONE', *, *, #199, .T. ) ;
#77 = DIRECTION ( 'NONE',  ( 1.000000000000000000, 0.000000000000000000, 0.000000000000000000 ) ) ;
#78 = AXIS2_PLACEMENT_3D ( 'NONE', #3, #19, #193 ) ;
#79 = AXIS2_PLACEMENT_3D ( 'NONE', #243, #22, #221 ) ;
#80 = EDGE_CURVE ( 'NONE', #137, #299, #222, .T. ) ;
#81 = EDGE_LOOP ( 'NONE', ( #1, #253, #148, #203 ) ) ;
#82 = CARTESIAN_POINT ( 'NONE',  ( 0.000000000000000000, 0.000000000000000000, 3.859999999999999876 ) ) ;
#83 = ORIENTED_EDGE ( 'NONE', *, *, #264, .F. ) ;
#84 = AXIS2_PLACEMENT_3D ( 'NONE', #312, #125, #77 ) ;
#85 = CARTESIAN_POINT ( 'NONE',  ( 0.000000000000000000, 0.000000000000000000, 5.038228070174834095 ) ) ;
#86 = ORIENTED_EDGE ( 'NONE', *, *, #127, .T. ) ;
#87 =( NAMED_UNIT ( * ) PLANE_ANGLE_UNIT ( ) SI_UNIT ( $, .RADIAN. ) );
#88 = ORIENTED_EDGE ( 'NONE', *, *, #149, .F. ) ;
#89 = APPLICATION_CONTEXT ( 'automotive_design' ) ;
#90 = PRESENTATION_STYLE_ASSIGNMENT (( #30 ) ) ;
#91 = FACE_OUTER_BOUND ( 'NONE', #248, .T. ) ;
#92 = DIRECTION ( 'NONE',  ( 1.203161767583364195E-16, -0.000000000000000000, 1.000000000000000000 ) ) ;
#93 = EDGE_CURVE ( 'NONE', #275, #137, #225, .T. ) ;
#94 = DIRECTION ( 'NONE',  ( -1.000000000000000000, 0.000000000000000000, 1.038423052289610415E-16 ) ) ;
#95 = ADVANCED_FACE ( 'NONE', ( #118 ), #308, .T. ) ;
#96 = CLOSED_SHELL ( 'NONE', ( #95, #279, #5, #211, #146, #233, #18, #116, #2, #255, #289 ) ) ;
#97 = FACE_OUTER_BOUND ( 'NONE', #6, .T. ) ;
#98 = AXIS2_PLACEMENT_3D ( 'NONE', #75, #105, #20 ) ;
#99 = UNCERTAINTY_MEASURE_WITH_UNIT (LENGTH_MEASURE( 1.000000000000000082E-05 ), #58, 'distance_accuracy_value', 'NONE');
#100 = CYLINDRICAL_SURFACE ( 'NONE', #50, 12.69999999999999929 ) ;
#101 = DIRECTION ( 'NONE',  ( -0.7071067811865474617, 8.659560562354932858E-17, 0.7071067811865474617 ) ) ;
#102 = VERTEX_POINT ( 'NONE', #14 ) ;
#103 = DIRECTION ( 'NONE',  ( -1.203161767583364195E-16, 0.000000000000000000, -1.000000000000000000 ) ) ;
#104 = EDGE_CURVE ( 'NONE', #303, #294, #119, .T. ) ;
#105 = DIRECTION ( 'NONE',  ( -0.000000000000000000, -0.000000000000000000, 1.000000000000000000 ) ) ;
#106 = DIRECTION ( 'NONE',  ( -1.000000000000000000, 0.000000000000000000, 1.978781430683766113E-16 ) ) ;
#107 = CIRCLE ( 'NONE', #295, 12.69999999999999929 ) ;
#108 = DIRECTION ( 'NONE',  ( -1.000000000000000000, 0.000000000000000000, 1.041653547523500834E-16 ) ) ;
#109 = ORIENTED_EDGE ( 'NONE', *, *, #126, .T. ) ;
#110 = EDGE_LOOP ( 'NONE', ( #229, #76, #182, #226 ) ) ;
#111 = CARTESIAN_POINT ( 'NONE',  ( 12.52902277269578946, 1.534362763502619969E-15, 3.872471589132494341 ) ) ;
#112 = ORIENTED_EDGE ( 'NONE', *, *, #51, .F. ) ;
#113 = DIRECTION ( 'NONE',  ( 0.000000000000000000, 0.000000000000000000, 1.000000000000000000 ) ) ;
#114 = CIRCLE ( 'NONE', #78, 12.49999999999999645 ) ;
#115 = LINE ( 'NONE', #141, #317 ) ;
#116 = ADVANCED_FACE ( 'NONE', ( #97 ), #302, .F. ) ;
#117 =( NAMED_UNIT ( * ) PLANE_ANGLE_UNIT ( ) SI_UNIT ( $, .RADIAN. ) );
#118 = FACE_OUTER_BOUND ( 'NONE', #185, .T. ) ;
#119 = LINE ( 'NONE', #212, #133 ) ;
#120 = CIRCLE ( 'NONE', #292, 12.49016633290208667 ) ;
#121 = LINE ( 'NONE', #171, #207 ) ;
#122 = COLOUR_RGB ( '',1.000000000000000000, 1.000000000000000000, 1.000000000000000000 ) ;
#123 = DIRECTION ( 'NONE',  ( 1.000000000000000000, 0.000000000000000000, -1.038423052289620029E-16 ) ) ;
#124 = FACE_OUTER_BOUND ( 'NONE', #81, .T. ) ;
#125 = DIRECTION ( 'NONE',  ( -0.000000000000000000, -0.000000000000000000, 1.000000000000000000 ) ) ;
#126 = EDGE_CURVE ( 'NONE', #294, #35, #166, .T. ) ;
#127 = EDGE_CURVE ( 'NONE', #102, #55, #114, .T. ) ;
#128 = DIRECTION ( 'NONE',  ( 1.000000000000000000, 0.000000000000000000, 0.000000000000000000 ) ) ;
#129 = CIRCLE ( 'NONE', #200, 70.13299999999999557 ) ;
#130 = CARTESIAN_POINT ( 'NONE',  ( 0.000000000000000000, 0.000000000000000000, -65.13299999999999557 ) ) ;
#131 = DIRECTION ( 'NONE',  ( -1.203161767583363456E-16, -0.000000000000000000, -1.000000000000000000 ) ) ;
#132 = ORIENTED_EDGE ( 'NONE', *, *, #80, .T. ) ;
#133 = VECTOR ( 'NONE', #307, 1000.000000000000000 ) ;
#134 = ORIENTED_EDGE ( 'NONE', *, *, #158, .F. ) ;
#135 = CONICAL_SURFACE ( 'NONE', #62, 12.52902277269314446, 0.7125841368262356701 ) ;
#136 = SURFACE_SIDE_STYLE ('',( #32 ) ) ;
#137 = VERTEX_POINT ( 'NONE', #286 ) ;
#138 = APPLICATION_PROTOCOL_DEFINITION ( 'draft international standard', 'automotive_design', 1998, #65 ) ;
#139 = EDGE_CURVE ( 'NONE', #55, #102, #175, .T. ) ;
#140 =( LENGTH_UNIT ( ) NAMED_UNIT ( * ) SI_UNIT ( .MILLI., .METRE. ) );
#141 = CARTESIAN_POINT ( 'NONE',  ( 12.69999999999999929, 1.555301434917138433E-15, 3.859999999999999876 ) ) ;
#142 = CIRCLE ( 'NONE', #98, 12.69999999999999929 ) ;
#143 = DIRECTION ( 'NONE',  ( 1.000000000000000000, 0.000000000000000000, -1.365923996832131609E-16 ) ) ;
#144 = CARTESIAN_POINT ( 'NONE',  ( 0.000000000000000000, 0.000000000000000000, 3.674588596773656679 ) ) ;
#145 = CARTESIAN_POINT ( 'NONE',  ( -12.69999999999999929, 0.000000000000000000, 3.859999999999999876 ) ) ;
#146 = ADVANCED_FACE ( 'NONE', ( #124 ), #217, .T. ) ;
#147 = FACE_OUTER_BOUND ( 'NONE', #290, .T. ) ;
#148 = ORIENTED_EDGE ( 'NONE', *, *, #172, .T. ) ;
#149 = EDGE_CURVE ( 'NONE', #9, #137, #21, .T. ) ;
#150 = PRESENTATION_LAYER_ASSIGNMENT (  '', '', ( #285 ) ) ;
#151 = CARTESIAN_POINT ( 'NONE',  ( 4.143726726362337326E-15, 0.000000000000000000, 5.000000000000004441 ) ) ;
#152 = MECHANICAL_DESIGN_GEOMETRIC_PRESENTATION_REPRESENTATION (  '', ( #186 ), #244 ) ;
#153 = FACE_OUTER_BOUND ( 'NONE', #313, .T. ) ;
#154 = AXIS2_PLACEMENT_3D ( 'NONE', #224, #220, #128 ) ;
#155 = ORIENTED_EDGE ( 'NONE', *, *, #66, .F. ) ;
#156 = CARTESIAN_POINT ( 'NONE',  ( 12.49016633290208667, 1.531983492771476481E-15, 3.878835463030830599 ) ) ;
#157 = ORIENTED_EDGE ( 'NONE', *, *, #311, .T. ) ;
#158 = EDGE_CURVE ( 'NONE', #299, #137, #120, .T. ) ;
#159 = DIRECTION ( 'NONE',  ( -1.000000000000000000, 0.000000000000000000, 1.203161767583363456E-16 ) ) ;
#160 = ORIENTED_EDGE ( 'NONE', *, *, #53, .F. ) ;
#161 = AXIS2_PLACEMENT_3D ( 'NONE', #74, #315, #288 ) ;
#162 = ORIENTED_EDGE ( 'NONE', *, *, #158, .T. ) ;
#163 = CONICAL_SURFACE ( 'NONE', #84, 12.69999999999999929, 0.7853981633974482790 ) ;
#164 = ORIENTED_EDGE ( 'NONE', *, *, #257, .T. ) ;
#165 = DIRECTION ( 'NONE',  ( -1.203161767583363456E-16, -0.000000000000000000, -1.000000000000000000 ) ) ;
#166 = CIRCLE ( 'NONE', #24, 12.69999999999999929 ) ;
#167 = FILL_AREA_STYLE_COLOUR ( '', #48 ) ;
#168 =( NAMED_UNIT ( * ) SI_UNIT ( $, .STERADIAN. ) SOLID_ANGLE_UNIT ( ) );
#169 = PRODUCT_DEFINITION_CONTEXT ( 'detailed design', #89, 'design' ) ;
#170 = AXIS2_PLACEMENT_3D ( 'NONE', #242, #192, #159 ) ;
#171 = CARTESIAN_POINT ( 'NONE',  ( -12.52902277269314446, 0.000000000000000000, 3.872471589133290593 ) ) ;
#172 = EDGE_CURVE ( 'NONE', #251, #301, #67, .T. ) ;
#173 = DIRECTION ( 'NONE',  ( -1.203161767583363456E-16, -0.000000000000000000, -1.000000000000000000 ) ) ;
#174 = DIRECTION ( 'NONE',  ( -0.000000000000000000, -0.000000000000000000, -1.000000000000000000 ) ) ;
#175 = CIRCLE ( 'NONE', #154, 12.49999999999999645 ) ;
#176 = DIRECTION ( 'NONE',  ( -1.000000000000000000, 0.000000000000000000, 1.203161767583363456E-16 ) ) ;
#177 = ORIENTED_EDGE ( 'NONE', *, *, #80, .F. ) ;
#178 = DIRECTION ( 'NONE',  ( 0.7071067811865474617, 0.000000000000000000, 0.7071067811865474617 ) ) ;
#179 = ORIENTED_EDGE ( 'NONE', *, *, #139, .T. ) ;
#180 = FACE_OUTER_BOUND ( 'NONE', #206, .T. ) ;
#181 = ORIENTED_EDGE ( 'NONE', *, *, #27, .F. ) ;
#182 = ORIENTED_EDGE ( 'NONE', *, *, #172, .F. ) ;
#183 =( GEOMETRIC_REPRESENTATION_CONTEXT ( 3 ) GLOBAL_UNCERTAINTY_ASSIGNED_CONTEXT ( ( #40 ) ) GLOBAL_UNIT_ASSIGNED_CONTEXT ( ( #208, #16, #168 ) ) REPRESENTATION_CONTEXT ( 'NONE', 'WORKASPACE' ) );
#184 = DIRECTION ( 'NONE',  ( 1.000000000000000000, 0.000000000000000000, 0.000000000000000000 ) ) ;
#185 = EDGE_LOOP ( 'NONE', ( #83, #254, #277, #112 ) ) ;
#186 = STYLED_ITEM ( 'NONE', ( #90 ), #269 ) ;
#187 = CARTESIAN_POINT ( 'NONE',  ( 12.49999999999999645, 0.000000000000000000, 0.000000000000000000 ) ) ;
#188 = DIRECTION ( 'NONE',  ( 1.000000000000000000, 0.000000000000000000, -0.000000000000000000 ) ) ;
#189 = AXIS2_PLACEMENT_3D ( 'NONE', #258, #165, #256 ) ;
#190 = DIRECTION ( 'NONE',  ( 0.000000000000000000, 0.000000000000000000, 1.000000000000000000 ) ) ;
#191 = AXIS2_PLACEMENT_3D ( 'NONE', #82, #174, #265 ) ;
#192 = DIRECTION ( 'NONE',  ( -1.203161767583363456E-16, -0.000000000000000000, -1.000000000000000000 ) ) ;
#193 = DIRECTION ( 'NONE',  ( 1.000000000000000000, 0.000000000000000000, 0.000000000000000000 ) ) ;
#194 = CARTESIAN_POINT ( 'NONE',  ( 2.266210899342775174E-18, 0.000000000000000000, 3.878835463030831932 ) ) ;
#195 = CARTESIAN_POINT ( 'NONE',  ( -1.402593628301707324E-16, 0.000000000000000000, 3.872471589133289260 ) ) ;
#196 = VECTOR ( 'NONE', #178, 1000.000000000000114 ) ;
#197 = ORIENTED_EDGE ( 'NONE', *, *, #199, .F. ) ;
#198 = PRODUCT_DEFINITION_SHAPE ( 'NONE', 'NONE',  #235 ) ;
#199 = EDGE_CURVE ( 'NONE', #102, #301, #268, .T. ) ;
#200 = AXIS2_PLACEMENT_3D ( 'NONE', #284, #72, #262 ) ;
#201 = DIRECTION ( 'NONE',  ( -0.000000000000000000, -0.000000000000000000, -1.000000000000000000 ) ) ;
#202 = PRESENTATION_LAYER_ASSIGNMENT (  '', '', ( #186 ) ) ;
#203 = ORIENTED_EDGE ( 'NONE', *, *, #69, .F. ) ;
#204 = DIRECTION ( 'NONE',  ( -1.000000000000000000, -1.224646799147353207E-16, 0.000000000000000000 ) ) ;
#205 = ORIENTED_EDGE ( 'NONE', *, *, #66, .T. ) ;
#206 = EDGE_LOOP ( 'NONE', ( #52, #160, #273, #60 ) ) ;
#207 = VECTOR ( 'NONE', #260, 1000.000000000000000 ) ;
#208 =( LENGTH_UNIT ( ) NAMED_UNIT ( * ) SI_UNIT ( .MILLI., .METRE. ) );
#209 = PRODUCT_CONTEXT ( 'NONE', #65, 'mechanical' ) ;
#210 = CARTESIAN_POINT ( 'NONE',  ( -1.402593628301707324E-16, 0.000000000000000000, 3.872471589133289260 ) ) ;
#211 = ADVANCED_FACE ( 'NONE', ( #153 ), #215, .F. ) ;
#212 = CARTESIAN_POINT ( 'NONE',  ( 12.52902277269314446, 1.534362763502295550E-15, 3.872471589133287928 ) ) ;
#213 = AXIS2_PLACEMENT_3D ( 'NONE', #210, #306, #94 ) ;
#214 = DIRECTION ( 'NONE',  ( -0.000000000000000000, -0.000000000000000000, -1.000000000000000000 ) ) ;
#215 = TOROIDAL_SURFACE ( 'NONE', #227, 12.70000000000000107, 1.178228070174831110 ) ;
#216 = DIRECTION ( 'NONE',  ( -1.000000000000000000, 0.000000000000000000, 1.978781430683766113E-16 ) ) ;
#217 = CYLINDRICAL_SURFACE ( 'NONE', #191, 12.69999999999999929 ) ;
#218 = FACE_OUTER_BOUND ( 'NONE', #110, .T. ) ;
#219 = ORIENTED_EDGE ( 'NONE', *, *, #69, .T. ) ;
#220 = DIRECTION ( 'NONE',  ( -0.000000000000000000, -0.000000000000000000, -1.000000000000000000 ) ) ;
#221 = DIRECTION ( 'NONE',  ( 1.000000000000000000, 0.000000000000000000, 0.000000000000000000 ) ) ;
#222 = CIRCLE ( 'NONE', #189, 12.49016633290208667 ) ;
#223 = DIRECTION ( 'NONE',  ( 0.000000000000000000, 1.000000000000000000, -0.000000000000000000 ) ) ;
#224 = CARTESIAN_POINT ( 'NONE',  ( 0.000000000000000000, 0.000000000000000000, 0.000000000000000000 ) ) ;
#225 = CIRCLE ( 'NONE', #261, 70.13299999999999557 ) ;
#226 = ORIENTED_EDGE ( 'NONE', *, *, #287, .F. ) ;
#227 = AXIS2_PLACEMENT_3D ( 'NONE', #85, #131, #176 ) ;
#228 = ORIENTED_EDGE ( 'NONE', *, *, #93, .T. ) ;
#229 = ORIENTED_EDGE ( 'NONE', *, *, #127, .F. ) ;
#230 = CARTESIAN_POINT ( 'NONE',  ( -12.69999999999999929, 0.000000000000000000, 0.2000000000000022593 ) ) ;
#231 = FACE_OUTER_BOUND ( 'NONE', #12, .T. ) ;
#232 = DIRECTION ( 'NONE',  ( 0.000000000000000000, -1.000000000000000000, 0.000000000000000000 ) ) ;
#233 = ADVANCED_FACE ( 'NONE', ( #147 ), #100, .T. ) ;
#234 = FILL_AREA_STYLE_COLOUR ( '', #122 ) ;
#235 = PRODUCT_DEFINITION ( 'Î´Öª', '', #314, #169 ) ;
#236 = PLANE ( 'NONE',  #238 ) ;
#237 = SURFACE_STYLE_FILL_AREA ( #241 ) ;
#238 = AXIS2_PLACEMENT_3D ( 'NONE', #41, #190, #188 ) ;
#239 = SPHERICAL_SURFACE ( 'NONE', #73, 70.13299999999999557 ) ;
#240 =( GEOMETRIC_REPRESENTATION_CONTEXT ( 3 ) GLOBAL_UNCERTAINTY_ASSIGNED_CONTEXT ( ( #99 ) ) GLOBAL_UNIT_ASSIGNED_CONTEXT ( ( #58, #87, #38 ) ) REPRESENTATION_CONTEXT ( 'NONE', 'WORKASPACE' ) );
#241 = FILL_AREA_STYLE ('',( #167 ) ) ;
#242 = CARTESIAN_POINT ( 'NONE',  ( 0.000000000000000000, 0.000000000000000000, 5.038228070174834095 ) ) ;
#243 = CARTESIAN_POINT ( 'NONE',  ( 0.000000000000000000, 0.000000000000000000, 0.2000000000000022593 ) ) ;
#244 =( GEOMETRIC_REPRESENTATION_CONTEXT ( 3 ) GLOBAL_UNCERTAINTY_ASSIGNED_CONTEXT ( ( #283 ) ) GLOBAL_UNIT_ASSIGNED_CONTEXT ( ( #140, #117, #61 ) ) REPRESENTATION_CONTEXT ( 'NONE', 'WORKASPACE' ) );
#245 = DIRECTION ( 'NONE',  ( 1.203161767583364195E-16, -0.000000000000000000, 1.000000000000000000 ) ) ;
#246 = VECTOR ( 'NONE', #64, 1000.000000000000000 ) ;
#247 = PRODUCT ( 'GL7AL2-025-050-IR2', 'GL7AL2-025-050-IR2', '', ( #209 ) ) ;
#248 = EDGE_LOOP ( 'NONE', ( #155, #228, #134 ) ) ;
#249 = DIRECTION ( 'NONE',  ( 0.000000000000000000, -1.000000000000000000, 0.000000000000000000 ) ) ;
#250 = ORIENTED_EDGE ( 'NONE', *, *, #257, .F. ) ;
#251 = VERTEX_POINT ( 'NONE', #56 ) ;
#252 = AXIS2_PLACEMENT_3D ( 'NONE', #8, #300, #204 ) ;
#253 = ORIENTED_EDGE ( 'NONE', *, *, #27, .T. ) ;
#254 = ORIENTED_EDGE ( 'NONE', *, *, #104, .T. ) ;
#255 = ADVANCED_FACE ( 'NONE', ( #291 ), #163, .T. ) ;
#256 = DIRECTION ( 'NONE',  ( -1.000000000000000000, 0.000000000000000000, 1.041653547523500834E-16 ) ) ;
#257 = EDGE_CURVE ( 'NONE', #301, #251, #142, .T. ) ;
#258 = CARTESIAN_POINT ( 'NONE',  ( 2.266210899342775174E-18, 0.000000000000000000, 3.878835463030831932 ) ) ;
#259 = FACE_OUTER_BOUND ( 'NONE', #278, .T. ) ;
#260 = DIRECTION ( 'NONE',  ( -0.6537913032972644256, 0.000000000000000000, -0.7566749181338472408 ) ) ;
#261 = AXIS2_PLACEMENT_3D ( 'NONE', #39, #232, #13 ) ;
#262 = DIRECTION ( 'NONE',  ( -1.000000000000000000, -1.224646799147353207E-16, 0.000000000000000000 ) ) ;
#263 = CARTESIAN_POINT ( 'NONE',  ( -12.69999999999999929, 1.555301434917138433E-15, 0.2000000000000022593 ) ) ;
#264 = EDGE_CURVE ( 'NONE', #303, #9, #298, .T. ) ;
#265 = DIRECTION ( 'NONE',  ( -1.000000000000000000, 0.000000000000000000, 0.000000000000000000 ) ) ;
#266 = PRODUCT_RELATED_PRODUCT_CATEGORY ( 'part', '', ( #247 ) ) ;
#267 = MECHANICAL_DESIGN_GEOMETRIC_PRESENTATION_REPRESENTATION (  '', ( #285 ), #183 ) ;
#268 = LINE ( 'NONE', #263, #15 ) ;
#269 = ADVANCED_BREP_SHAPE_REPRESENTATION ( 'GL7AL2-025-050-IR2', ( #34, #318 ), #240 ) ;
#270 = AXIS2_PLACEMENT_3D ( 'NONE', #297, #245, #23 ) ;
#271 = ORIENTED_EDGE ( 'NONE', *, *, #53, .T. ) ;
#272 = DIRECTION ( 'NONE',  ( -1.000000000000000000, 0.000000000000000000, 0.000000000000000000 ) ) ;
#273 = ORIENTED_EDGE ( 'NONE', *, *, #51, .T. ) ;
#274 = DIRECTION ( 'NONE',  ( -1.000000000000000000, 0.000000000000000000, 1.038423052289610415E-16 ) ) ;
#275 = VERTEX_POINT ( 'NONE', #151 ) ;
#276 = CARTESIAN_POINT ( 'NONE',  ( 0.000000000000000000, 0.000000000000000000, 0.000000000000000000 ) ) ;
#277 = ORIENTED_EDGE ( 'NONE', *, *, #25, .F. ) ;
#278 = EDGE_LOOP ( 'NONE', ( #179, #86 ) ) ;
#279 = ADVANCED_FACE ( 'NONE', ( #218 ), #17, .T. ) ;
#280 = SHAPE_DEFINITION_REPRESENTATION ( #198, #269 ) ;
#281 = CARTESIAN_POINT ( 'NONE',  ( -12.69999999999999929, 0.000000000000000000, 3.674588596773658455 ) ) ;
#282 = CARTESIAN_POINT ( 'NONE',  ( 0.000000000000000000, 0.000000000000000000, 3.674588596773656679 ) ) ;
#283 = UNCERTAINTY_MEASURE_WITH_UNIT (LENGTH_MEASURE( 1.000000000000000082E-05 ), #140, 'distance_accuracy_value', 'NONE');
#284 = CARTESIAN_POINT ( 'NONE',  ( 0.000000000000000000, 0.000000000000000000, -65.13299999999999557 ) ) ;
#285 = STYLED_ITEM ( 'NONE', ( #309 ), #34 ) ;
#286 = CARTESIAN_POINT ( 'NONE',  ( -12.49016633290208667, 0.000000000000000000, 3.878835463030832820 ) ) ;
#287 = EDGE_CURVE ( 'NONE', #55, #251, #316, .T. ) ;
#288 = DIRECTION ( 'NONE',  ( 1.000000000000000000, 0.000000000000000000, 0.000000000000000000 ) ) ;
#289 = ADVANCED_FACE ( 'NONE', ( #180 ), #135, .T. ) ;
#290 = EDGE_LOOP ( 'NONE', ( #181, #109, #219, #164 ) ) ;
#291 = FACE_OUTER_BOUND ( 'NONE', #57, .T. ) ;
#292 = AXIS2_PLACEMENT_3D ( 'NONE', #194, #173, #108 ) ;
#293 = DIRECTION ( 'NONE',  ( -1.203161767583364195E-16, 0.000000000000000000, -1.000000000000000000 ) ) ;
#294 = VERTEX_POINT ( 'NONE', #54 ) ;
#295 = AXIS2_PLACEMENT_3D ( 'NONE', #144, #37, #143 ) ;
#296 = CARTESIAN_POINT ( 'NONE',  ( -12.52902277269578946, 0.000000000000000000, 3.872471589132497893 ) ) ;
#297 = CARTESIAN_POINT ( 'NONE',  ( -1.402593628302662339E-16, 0.000000000000000000, 3.872471589132496117 ) ) ;
#298 = CIRCLE ( 'NONE', #270, 12.52902277269302900 ) ;
#299 = VERTEX_POINT ( 'NONE', #156 ) ;
#300 = DIRECTION ( 'NONE',  ( -1.224646799147353207E-16, 1.000000000000000000, 1.473448207527437814E-32 ) ) ;
#301 = VERTEX_POINT ( 'NONE', #230 ) ;
#302 = TOROIDAL_SURFACE ( 'NONE', #170, 12.70000000000000107, 1.178228070174831110 ) ;
#303 = VERTEX_POINT ( 'NONE', #111 ) ;
#304 = SURFACE_STYLE_USAGE ( .BOTH. , #71 ) ;
#305 = APPLICATION_PROTOCOL_DEFINITION ( 'draft international standard', 'automotive_design', 1998, #89 ) ;
#306 = DIRECTION ( 'NONE',  ( -1.203161767583364195E-16, 0.000000000000000000, -1.000000000000000000 ) ) ;
#307 = DIRECTION ( 'NONE',  ( 0.6537913032972642036, 8.006634268933711182E-17, -0.7566749181338474628 ) ) ;
#308 = CONICAL_SURFACE ( 'NONE', #213, 12.52902277269314446, 0.7125841368262356701 ) ;
#309 = PRESENTATION_STYLE_ASSIGNMENT (( #304 ) ) ;
#310 = DIRECTION ( 'NONE',  ( 0.000000000000000000, 0.000000000000000000, -1.000000000000000000 ) ) ;
#311 = EDGE_CURVE ( 'NONE', #303, #299, #33, .T. ) ;
#312 = CARTESIAN_POINT ( 'NONE',  ( 0.000000000000000000, 0.000000000000000000, 0.2000000000000022593 ) ) ;
#313 = EDGE_LOOP ( 'NONE', ( #271, #157, #162, #88 ) ) ;
#314 = PRODUCT_DEFINITION_FORMATION_WITH_SPECIFIED_SOURCE ( 'ÈÎºÎ', '', #247, .NOT_KNOWN. ) ;
#315 = DIRECTION ( 'NONE',  ( -0.000000000000000000, -0.000000000000000000, 1.000000000000000000 ) ) ;
#316 = LINE ( 'NONE', #28, #196 ) ;
#317 = VECTOR ( 'NONE', #214, 1000.000000000000000 ) ;
#318 = AXIS2_PLACEMENT_3D ( 'NONE', #276, #113, #184 ) ;
ENDSEC;
END-ISO-10303-21;
