ISO-10303-21;
HEADER;
FILE_DESCRIPTION (( 'STEP AP214' ),
    '1' );
FILE_NAME ('GLA11-015-9.STEP',
    '2024-08-09T08:22:11',
    ( 'Windows User' ),
    ( 'P R C' ),
    'SwSTEP 2.0',
    'SolidWorks 2022',
    '' );
FILE_SCHEMA (( 'AUTOMOTIVE_DESIGN' ));
ENDSEC;

DATA;
#1 = DIRECTION ( 'NONE',  ( 1.000000000000000000, 0.000000000000000000, 0.000000000000000000 ) ) ;
#2 = FILL_AREA_STYLE ('',( #102 ) ) ;
#3 = AXIS2_PLACEMENT_3D ( 'NONE', #84, #92, #82 ) ;
#4 = ADVANCED_FACE ( 'NONE', ( #129 ), #22, .T. ) ;
#5 = DIRECTION ( 'NONE',  ( 1.000000000000000000, 0.000000000000000000, 0.000000000000000000 ) ) ;
#6 = SURFACE_SIDE_STYLE ('',( #189 ) ) ;
#7 = STYLED_ITEM ( 'NONE', ( #185 ), #71 ) ;
#8 = ADVANCED_FACE ( 'NONE', ( #42 ), #148, .T. ) ;
#9 = MECHANICAL_DESIGN_GEOMETRIC_PRESENTATION_REPRESENTATION (  '', ( #7 ), #125 ) ;
#10 = CARTESIAN_POINT ( 'NONE',  ( 7.299999999999994493, 0.000000000000000000, 0.000000000000000000 ) ) ;
#11 = DIRECTION ( 'NONE',  ( -0.000000000000000000, -0.000000000000000000, -1.000000000000000000 ) ) ;
#12 = AXIS2_PLACEMENT_3D ( 'NONE', #108, #128, #17 ) ;
#13 = CARTESIAN_POINT ( 'NONE',  ( -7.500000000000000888, 0.000000000000000000, 1.350000000000000089 ) ) ;
#14 = DIRECTION ( 'NONE',  ( -1.000000000000000000, 0.000000000000000000, 0.000000000000000000 ) ) ;
#15 = LINE ( 'NONE', #196, #43 ) ;
#16 = CONICAL_SURFACE ( 'NONE', #153, 7.500000000000000888, 0.7853981633974461696 ) ;
#17 = DIRECTION ( 'NONE',  ( 1.000000000000000000, 0.000000000000000000, 0.000000000000000000 ) ) ;
#18 = CARTESIAN_POINT ( 'NONE',  ( 0.000000000000000000, 0.000000000000000000, 0.000000000000000000 ) ) ;
#19 =( LENGTH_UNIT ( ) NAMED_UNIT ( * ) SI_UNIT ( .MILLI., .METRE. ) );
#20 = CARTESIAN_POINT ( 'NONE',  ( 0.000000000000000000, 0.000000000000000000, 0.2000000000000065892 ) ) ;
#21 = PRODUCT_DEFINITION_SHAPE ( 'NONE', 'NONE',  #177 ) ;
#22 = SPHERICAL_SURFACE ( 'NONE', #119, 7.802876106194690742 ) ;
#23 = AXIS2_PLACEMENT_3D ( 'NONE', #20, #87, #5 ) ;
#24 = DIRECTION ( 'NONE',  ( -0.000000000000000000, -0.000000000000000000, -1.000000000000000000 ) ) ;
#25 = EDGE_CURVE ( 'NONE', #101, #159, #35, .T. ) ;
#26 = DIRECTION ( 'NONE',  ( 1.000000000000000000, 0.000000000000000000, 0.000000000000000000 ) ) ;
#27 = VERTEX_POINT ( 'NONE', #133 ) ;
#28 = FACE_OUTER_BOUND ( 'NONE', #146, .T. ) ;
#29 = CIRCLE ( 'NONE', #75, 7.500000000000000888 ) ;
#30 = CARTESIAN_POINT ( 'NONE',  ( -4.336808689942017736E-16, 0.000000000000000000, -0.8028761061946902977 ) ) ;
#31 = CARTESIAN_POINT ( 'NONE',  ( -4.336808689942017736E-16, 0.000000000000000000, -0.8028761061946902977 ) ) ;
#32 = VERTEX_POINT ( 'NONE', #187 ) ;
#33 = CARTESIAN_POINT ( 'NONE',  ( 0.000000000000000000, 0.000000000000000000, 0.000000000000000000 ) ) ;
#34 = ORIENTED_EDGE ( 'NONE', *, *, #192, .F. ) ;
#35 = CIRCLE ( 'NONE', #23, 7.500000000000000888 ) ;
#36 = MECHANICAL_DESIGN_GEOMETRIC_PRESENTATION_REPRESENTATION (  '', ( #165 ), #206 ) ;
#37 =( NAMED_UNIT ( * ) SI_UNIT ( $, .STERADIAN. ) SOLID_ANGLE_UNIT ( ) );
#38 = DIRECTION ( 'NONE',  ( -0.000000000000000000, -0.000000000000000000, -1.000000000000000000 ) ) ;
#39 = DIRECTION ( 'NONE',  ( -0.000000000000000000, -0.000000000000000000, -1.000000000000000000 ) ) ;
#40 = FILL_AREA_STYLE ('',( #86 ) ) ;
#41 =( LENGTH_UNIT ( ) NAMED_UNIT ( * ) SI_UNIT ( .MILLI., .METRE. ) );
#42 = FACE_OUTER_BOUND ( 'NONE', #195, .T. ) ;
#43 = VECTOR ( 'NONE', #48, 1000.000000000000227 ) ;
#44 = COLOUR_RGB ( '',1.000000000000000000, 1.000000000000000000, 1.000000000000000000 ) ;
#45 = PRODUCT_DEFINITION_FORMATION_WITH_SPECIFIED_SOURCE ( 'ÈÎºÎ', '', #173, .NOT_KNOWN. ) ;
#46 = COLOUR_RGB ( '',1.000000000000000000, 1.000000000000000000, 1.000000000000000000 ) ;
#47 = DIRECTION ( 'NONE',  ( 1.000000000000000000, 0.000000000000000000, 0.000000000000000000 ) ) ;
#48 = DIRECTION ( 'NONE',  ( -0.7071067811865460184, 8.659560562354913137E-17, 0.7071067811865490160 ) ) ;
#49 = APPLICATION_CONTEXT ( 'automotive_design' ) ;
#50 = ORIENTED_EDGE ( 'NONE', *, *, #142, .F. ) ;
#51 = EDGE_LOOP ( 'NONE', ( #50, #204, #93, #66 ) ) ;
#52 = CARTESIAN_POINT ( 'NONE',  ( 0.000000000000000000, 0.000000000000000000, 1.350000000000000089 ) ) ;
#53 = SURFACE_STYLE_USAGE ( .BOTH. , #104 ) ;
#54 =( GEOMETRIC_REPRESENTATION_CONTEXT ( 3 ) GLOBAL_UNCERTAINTY_ASSIGNED_CONTEXT ( ( #156 ) ) GLOBAL_UNIT_ASSIGNED_CONTEXT ( ( #19, #100, #37 ) ) REPRESENTATION_CONTEXT ( 'NONE', 'WORKASPACE' ) );
#55 =( NAMED_UNIT ( * ) SI_UNIT ( $, .STERADIAN. ) SOLID_ANGLE_UNIT ( ) );
#56 = ORIENTED_EDGE ( 'NONE', *, *, #25, .T. ) ;
#57 = AXIS2_PLACEMENT_3D ( 'NONE', #18, #24, #1 ) ;
#58 = EDGE_CURVE ( 'NONE', #180, #27, #150, .T. ) ;
#59 = AXIS2_PLACEMENT_3D ( 'NONE', #62, #78, #209 ) ;
#60 = CARTESIAN_POINT ( 'NONE',  ( -7.500000000000000888, 0.000000000000000000, 0.2000000000000065892 ) ) ;
#61 = ORIENTED_EDGE ( 'NONE', *, *, #118, .T. ) ;
#62 = CARTESIAN_POINT ( 'NONE',  ( -4.336808689942017736E-16, 0.000000000000000000, -0.8028761061946902977 ) ) ;
#63 = DIRECTION ( 'NONE',  ( -0.000000000000000000, -0.000000000000000000, -1.000000000000000000 ) ) ;
#64 = ADVANCED_FACE ( 'NONE', ( #132 ), #188, .F. ) ;
#65 = CIRCLE ( 'NONE', #212, 7.299999999999994493 ) ;
#66 = ORIENTED_EDGE ( 'NONE', *, *, #205, .F. ) ;
#67 = ORIENTED_EDGE ( 'NONE', *, *, #131, .T. ) ;
#68 = ORIENTED_EDGE ( 'NONE', *, *, #25, .F. ) ;
#69 = DIRECTION ( 'NONE',  ( -1.000000000000000000, 0.000000000000000000, 0.000000000000000000 ) ) ;
#70 = CARTESIAN_POINT ( 'NONE',  ( -4.336808689942017736E-16, 0.000000000000000000, -0.8028761061946902977 ) ) ;
#71 = MANIFOLD_SOLID_BREP ( 'µ¹½Ç1', #109 ) ;
#72 = DIRECTION ( 'NONE',  ( 1.000000000000000000, 0.000000000000000000, -0.000000000000000000 ) ) ;
#73 =( NAMED_UNIT ( * ) PLANE_ANGLE_UNIT ( ) SI_UNIT ( $, .RADIAN. ) );
#74 = CONICAL_SURFACE ( 'NONE', #3, 7.500000000000000888, 0.7853981633974461696 ) ;
#75 = AXIS2_PLACEMENT_3D ( 'NONE', #52, #80, #178 ) ;
#76 = PRODUCT_DEFINITION_CONTEXT ( 'detailed design', #49, 'design' ) ;
#77 = EDGE_CURVE ( 'NONE', #32, #83, #99, .T. ) ;
#78 = DIRECTION ( 'NONE',  ( -1.224646799147353207E-16, -1.000000000000000000, -0.000000000000000000 ) ) ;
#79 = CARTESIAN_POINT ( 'NONE',  ( 7.500000000000000888, 9.184850993605147944E-16, 0.2000000000000065892 ) ) ;
#80 = DIRECTION ( 'NONE',  ( 0.000000000000000000, 0.000000000000000000, 1.000000000000000000 ) ) ;
#81 = ORIENTED_EDGE ( 'NONE', *, *, #192, .T. ) ;
#82 = DIRECTION ( 'NONE',  ( 1.000000000000000000, 0.000000000000000000, 0.000000000000000000 ) ) ;
#83 = VERTEX_POINT ( 'NONE', #107 ) ;
#84 = CARTESIAN_POINT ( 'NONE',  ( 0.000000000000000000, 0.000000000000000000, 0.2000000000000065892 ) ) ;
#85 = CARTESIAN_POINT ( 'NONE',  ( -7.500000000000000888, 0.000000000000000000, 1.350000000000000089 ) ) ;
#86 = FILL_AREA_STYLE_COLOUR ( '', #44 ) ;
#87 = DIRECTION ( 'NONE',  ( -0.000000000000000000, -0.000000000000000000, 1.000000000000000000 ) ) ;
#88 = DIRECTION ( 'NONE',  ( -0.000000000000000000, -1.000000000000000000, 0.000000000000000000 ) ) ;
#89 = AXIS2_PLACEMENT_3D ( 'NONE', #30, #141, #69 ) ;
#90 = DIRECTION ( 'NONE',  ( 0.000000000000000000, 1.000000000000000000, 0.000000000000000000 ) ) ;
#91 = ADVANCED_BREP_SHAPE_REPRESENTATION ( 'GLA11-015-9', ( #71, #130 ), #54 ) ;
#92 = DIRECTION ( 'NONE',  ( -0.000000000000000000, -0.000000000000000000, 1.000000000000000000 ) ) ;
#93 = ORIENTED_EDGE ( 'NONE', *, *, #152, .T. ) ;
#94 = ADVANCED_FACE ( 'NONE', ( #157 ), #74, .T. ) ;
#95 = AXIS2_PLACEMENT_3D ( 'NONE', #151, #38, #114 ) ;
#96 = ORIENTED_EDGE ( 'NONE', *, *, #214, .T. ) ;
#97 =( NAMED_UNIT ( * ) PLANE_ANGLE_UNIT ( ) SI_UNIT ( $, .RADIAN. ) );
#98 = DIRECTION ( 'NONE',  ( 0.000000000000000000, 0.000000000000000000, 1.000000000000000000 ) ) ;
#99 = CIRCLE ( 'NONE', #59, 7.802876106194690742 ) ;
#100 =( NAMED_UNIT ( * ) PLANE_ANGLE_UNIT ( ) SI_UNIT ( $, .RADIAN. ) );
#101 = VERTEX_POINT ( 'NONE', #79 ) ;
#102 = FILL_AREA_STYLE_COLOUR ( '', #46 ) ;
#103 = SURFACE_STYLE_FILL_AREA ( #40 ) ;
#104 = SURFACE_SIDE_STYLE ('',( #103 ) ) ;
#105 = CIRCLE ( 'NONE', #171, 7.802876106194690742 ) ;
#106 = CARTESIAN_POINT ( 'NONE',  ( 0.000000000000000000, 0.000000000000000000, 1.350000000000000089 ) ) ;
#107 = CARTESIAN_POINT ( 'NONE',  ( -9.114692313739364955E-16, 0.000000000000000000, 7.000000000000000000 ) ) ;
#108 = CARTESIAN_POINT ( 'NONE',  ( 0.000000000000000000, 0.000000000000000000, 0.2000000000000065892 ) ) ;
#109 = CLOSED_SHELL ( 'NONE', ( #136, #203, #8, #163, #64, #4, #94 ) ) ;
#110 = CARTESIAN_POINT ( 'NONE',  ( 0.000000000000000000, 0.000000000000000000, 0.000000000000000000 ) ) ;
#111 = APPLICATION_PROTOCOL_DEFINITION ( 'draft international standard', 'automotive_design', 1998, #158 ) ;
#112 = DIRECTION ( 'NONE',  ( -1.000000000000000000, 0.000000000000000000, 0.000000000000000000 ) ) ;
#113 = DIRECTION ( 'NONE',  ( 0.000000000000000000, 0.000000000000000000, 1.000000000000000000 ) ) ;
#114 = DIRECTION ( 'NONE',  ( -1.000000000000000000, 0.000000000000000000, 0.000000000000000000 ) ) ;
#115 = CIRCLE ( 'NONE', #12, 7.500000000000000888 ) ;
#116 = UNCERTAINTY_MEASURE_WITH_UNIT (LENGTH_MEASURE( 1.000000000000000082E-05 ), #41, 'distance_accuracy_value', 'NONE');
#117 = VECTOR ( 'NONE', #144, 1000.000000000000227 ) ;
#118 = EDGE_CURVE ( 'NONE', #32, #101, #126, .T. ) ;
#119 = AXIS2_PLACEMENT_3D ( 'NONE', #70, #88, #112 ) ;
#120 =( NAMED_UNIT ( * ) SI_UNIT ( $, .STERADIAN. ) SOLID_ANGLE_UNIT ( ) );
#121 = VECTOR ( 'NONE', #39, 1000.000000000000000 ) ;
#122 = DIRECTION ( 'NONE',  ( 0.000000000000000000, 0.000000000000000000, 1.000000000000000000 ) ) ;
#123 = DIRECTION ( 'NONE',  ( -0.000000000000000000, -0.000000000000000000, -1.000000000000000000 ) ) ;
#124 =( LENGTH_UNIT ( ) NAMED_UNIT ( * ) SI_UNIT ( .MILLI., .METRE. ) );
#125 =( GEOMETRIC_REPRESENTATION_CONTEXT ( 3 ) GLOBAL_UNCERTAINTY_ASSIGNED_CONTEXT ( ( #138 ) ) GLOBAL_UNIT_ASSIGNED_CONTEXT ( ( #124, #97, #120 ) ) REPRESENTATION_CONTEXT ( 'NONE', 'WORKASPACE' ) );
#126 = LINE ( 'NONE', #164, #193 ) ;
#127 = ORIENTED_EDGE ( 'NONE', *, *, #183, .F. ) ;
#128 = DIRECTION ( 'NONE',  ( -0.000000000000000000, -0.000000000000000000, 1.000000000000000000 ) ) ;
#129 = FACE_OUTER_BOUND ( 'NONE', #166, .T. ) ;
#130 = AXIS2_PLACEMENT_3D ( 'NONE', #33, #98, #201 ) ;
#131 = EDGE_CURVE ( 'NONE', #170, #83, #105, .T. ) ;
#132 = FACE_OUTER_BOUND ( 'NONE', #200, .T. ) ;
#133 = CARTESIAN_POINT ( 'NONE',  ( -7.299999999999994493, 9.062386313690410430E-16, 0.000000000000000000 ) ) ;
#134 = CIRCLE ( 'NONE', #191, 7.500000000000000888 ) ;
#135 = PRESENTATION_LAYER_ASSIGNMENT (  '', '', ( #7 ) ) ;
#136 = ADVANCED_FACE ( 'NONE', ( #208 ), #16, .T. ) ;
#137 = EDGE_LOOP ( 'NONE', ( #127, #161, #68, #202 ) ) ;
#138 = UNCERTAINTY_MEASURE_WITH_UNIT (LENGTH_MEASURE( 1.000000000000000082E-05 ), #124, 'distance_accuracy_value', 'NONE');
#139 = DIRECTION ( 'NONE',  ( 0.000000000000000000, 0.000000000000000000, 1.000000000000000000 ) ) ;
#140 = ORIENTED_EDGE ( 'NONE', *, *, #77, .F. ) ;
#141 = DIRECTION ( 'NONE',  ( -0.000000000000000000, -1.000000000000000000, 0.000000000000000000 ) ) ;
#142 = EDGE_CURVE ( 'NONE', #27, #159, #15, .T. ) ;
#143 = ORIENTED_EDGE ( 'NONE', *, *, #183, .T. ) ;
#144 = DIRECTION ( 'NONE',  ( 0.7071067811865460184, 0.000000000000000000, 0.7071067811865490160 ) ) ;
#145 = ORIENTED_EDGE ( 'NONE', *, *, #131, .F. ) ;
#146 = EDGE_LOOP ( 'NONE', ( #190, #172, #96, #215 ) ) ;
#147 = SHAPE_DEFINITION_REPRESENTATION ( #21, #91 ) ;
#148 = CYLINDRICAL_SURFACE ( 'NONE', #95, 7.500000000000000888 ) ;
#149 = SURFACE_STYLE_USAGE ( .BOTH. , #6 ) ;
#150 = CIRCLE ( 'NONE', #57, 7.299999999999994493 ) ;
#151 = CARTESIAN_POINT ( 'NONE',  ( 0.000000000000000000, 0.000000000000000000, 1.350000000000000089 ) ) ;
#152 = EDGE_CURVE ( 'NONE', #180, #101, #181, .T. ) ;
#153 = AXIS2_PLACEMENT_3D ( 'NONE', #154, #162, #26 ) ;
#154 = CARTESIAN_POINT ( 'NONE',  ( 0.000000000000000000, 0.000000000000000000, 0.2000000000000065892 ) ) ;
#155 = PRODUCT_RELATED_PRODUCT_CATEGORY ( 'part', '', ( #173 ) ) ;
#156 = UNCERTAINTY_MEASURE_WITH_UNIT (LENGTH_MEASURE( 1.000000000000000082E-05 ), #19, 'distance_accuracy_value', 'NONE');
#157 = FACE_OUTER_BOUND ( 'NONE', #51, .T. ) ;
#158 = APPLICATION_CONTEXT ( 'automotive_design' ) ;
#159 = VERTEX_POINT ( 'NONE', #60 ) ;
#160 = CYLINDRICAL_SURFACE ( 'NONE', #182, 7.500000000000000888 ) ;
#161 = ORIENTED_EDGE ( 'NONE', *, *, #142, .T. ) ;
#162 = DIRECTION ( 'NONE',  ( -0.000000000000000000, -0.000000000000000000, 1.000000000000000000 ) ) ;
#163 = ADVANCED_FACE ( 'NONE', ( #28 ), #160, .T. ) ;
#164 = CARTESIAN_POINT ( 'NONE',  ( 7.500000000000000888, 9.184850993605147944E-16, 1.350000000000000089 ) ) ;
#165 = STYLED_ITEM ( 'NONE', ( #169 ), #91 ) ;
#166 = EDGE_LOOP ( 'NONE', ( #140, #81, #67 ) ) ;
#167 = APPLICATION_PROTOCOL_DEFINITION ( 'draft international standard', 'automotive_design', 1998, #49 ) ;
#168 = ORIENTED_EDGE ( 'NONE', *, *, #58, .T. ) ;
#169 = PRESENTATION_STYLE_ASSIGNMENT (( #149 ) ) ;
#170 = VERTEX_POINT ( 'NONE', #13 ) ;
#171 = AXIS2_PLACEMENT_3D ( 'NONE', #31, #90, #122 ) ;
#172 = ORIENTED_EDGE ( 'NONE', *, *, #174, .F. ) ;
#173 = PRODUCT ( 'GLA11-015-9', 'GLA11-015-9', '', ( #186 ) ) ;
#174 = EDGE_CURVE ( 'NONE', #170, #32, #29, .T. ) ;
#175 = PRESENTATION_LAYER_ASSIGNMENT (  '', '', ( #165 ) ) ;
#176 = AXIS2_PLACEMENT_3D ( 'NONE', #110, #113, #72 ) ;
#177 = PRODUCT_DEFINITION ( 'Î´Öª', '', #45, #76 ) ;
#178 = DIRECTION ( 'NONE',  ( 1.000000000000000000, 0.000000000000000000, 0.000000000000000000 ) ) ;
#179 = DIRECTION ( 'NONE',  ( 1.000000000000000000, 0.000000000000000000, 0.000000000000000000 ) ) ;
#180 = VERTEX_POINT ( 'NONE', #10 ) ;
#181 = LINE ( 'NONE', #199, #117 ) ;
#182 = AXIS2_PLACEMENT_3D ( 'NONE', #213, #63, #14 ) ;
#183 = EDGE_CURVE ( 'NONE', #27, #180, #65, .T. ) ;
#184 = SPHERICAL_SURFACE ( 'NONE', #89, 7.802876106194690742 ) ;
#185 = PRESENTATION_STYLE_ASSIGNMENT (( #53 ) ) ;
#186 = PRODUCT_CONTEXT ( 'NONE', #158, 'mechanical' ) ;
#187 = CARTESIAN_POINT ( 'NONE',  ( 7.500000000000000888, 9.184850993605147944E-16, 1.350000000000000089 ) ) ;
#188 = PLANE ( 'NONE',  #176 ) ;
#189 = SURFACE_STYLE_FILL_AREA ( #2 ) ;
#190 = ORIENTED_EDGE ( 'NONE', *, *, #118, .F. ) ;
#191 = AXIS2_PLACEMENT_3D ( 'NONE', #106, #139, #179 ) ;
#192 = EDGE_CURVE ( 'NONE', #32, #170, #134, .T. ) ;
#193 = VECTOR ( 'NONE', #11, 1000.000000000000000 ) ;
#194 = CARTESIAN_POINT ( 'NONE',  ( 0.000000000000000000, 0.000000000000000000, 0.000000000000000000 ) ) ;
#195 = EDGE_LOOP ( 'NONE', ( #34, #61, #56, #211 ) ) ;
#196 = CARTESIAN_POINT ( 'NONE',  ( -7.500000000000000888, 9.184850993605149917E-16, 0.2000000000000065892 ) ) ;
#197 = FACE_OUTER_BOUND ( 'NONE', #210, .T. ) ;
#198 = ORIENTED_EDGE ( 'NONE', *, *, #77, .T. ) ;
#199 = CARTESIAN_POINT ( 'NONE',  ( 7.500000000000000888, 0.000000000000000000, 0.2000000000000065892 ) ) ;
#200 = EDGE_LOOP ( 'NONE', ( #168, #143 ) ) ;
#201 = DIRECTION ( 'NONE',  ( 1.000000000000000000, 0.000000000000000000, 0.000000000000000000 ) ) ;
#202 = ORIENTED_EDGE ( 'NONE', *, *, #152, .F. ) ;
#203 = ADVANCED_FACE ( 'NONE', ( #197 ), #184, .T. ) ;
#204 = ORIENTED_EDGE ( 'NONE', *, *, #58, .F. ) ;
#205 = EDGE_CURVE ( 'NONE', #159, #101, #115, .T. ) ;
#206 =( GEOMETRIC_REPRESENTATION_CONTEXT ( 3 ) GLOBAL_UNCERTAINTY_ASSIGNED_CONTEXT ( ( #116 ) ) GLOBAL_UNIT_ASSIGNED_CONTEXT ( ( #41, #73, #55 ) ) REPRESENTATION_CONTEXT ( 'NONE', 'WORKASPACE' ) );
#207 = ORIENTED_EDGE ( 'NONE', *, *, #174, .T. ) ;
#208 = FACE_OUTER_BOUND ( 'NONE', #137, .T. ) ;
#209 = DIRECTION ( 'NONE',  ( 1.000000000000000000, -1.224646799147353207E-16, 0.000000000000000000 ) ) ;
#210 = EDGE_LOOP ( 'NONE', ( #207, #198, #145 ) ) ;
#211 = ORIENTED_EDGE ( 'NONE', *, *, #214, .F. ) ;
#212 = AXIS2_PLACEMENT_3D ( 'NONE', #194, #123, #47 ) ;
#213 = CARTESIAN_POINT ( 'NONE',  ( 0.000000000000000000, 0.000000000000000000, 1.350000000000000089 ) ) ;
#214 = EDGE_CURVE ( 'NONE', #170, #159, #216, .T. ) ;
#215 = ORIENTED_EDGE ( 'NONE', *, *, #205, .T. ) ;
#216 = LINE ( 'NONE', #85, #121 ) ;
ENDSEC;
END-ISO-10303-21;
