ISO-10303-21;
HEADER;
FILE_DESCRIPTION (( 'STEP AP214' ),
    '1' );
FILE_NAME ('GLA11-015-9-NIR.STEP',
    '2024-08-09T08:22:23',
    ( 'Windows User' ),
    ( 'P R C' ),
    'SwSTEP 2.0',
    'SolidWorks 2022',
    '' );
FILE_SCHEMA (( 'AUTOMOTIVE_DESIGN' ));
ENDSEC;

DATA;
#1 = SURFACE_STYLE_USAGE ( .BOTH. , #201 ) ;
#2 = AXIS2_PLACEMENT_3D ( 'NONE', #212, #125, #15 ) ;
#3 = EDGE_CURVE ( 'NONE', #44, #185, #101, .T. ) ;
#4 = PRODUCT_DEFINITION ( 'Î´Öª', '', #55, #132 ) ;
#5 =( GEOMETRIC_REPRESENTATION_CONTEXT ( 3 ) GLOBAL_UNCERTAINTY_ASSIGNED_CONTEXT ( ( #166 ) ) GLOBAL_UNIT_ASSIGNED_CONTEXT ( ( #18, #126, #47 ) ) REPRESENTATION_CONTEXT ( 'NONE', 'WORKASPACE' ) );
#6 = DIRECTION ( 'NONE',  ( -1.000000000000000000, 0.000000000000000000, 0.000000000000000000 ) ) ;
#7 = DIRECTION ( 'NONE',  ( 0.000000000000000000, 0.000000000000000000, 1.000000000000000000 ) ) ;
#8 = CARTESIAN_POINT ( 'NONE',  ( 7.500000000000000888, 9.184850993605147944E-16, 0.2000000000000065892 ) ) ;
#9 = ORIENTED_EDGE ( 'NONE', *, *, #98, .F. ) ;
#10 = CIRCLE ( 'NONE', #127, 7.500000000000000888 ) ;
#11 = EDGE_LOOP ( 'NONE', ( #107, #70, #68, #38 ) ) ;
#12 =( NAMED_UNIT ( * ) SI_UNIT ( $, .STERADIAN. ) SOLID_ANGLE_UNIT ( ) );
#13 =( LENGTH_UNIT ( ) NAMED_UNIT ( * ) SI_UNIT ( .MILLI., .METRE. ) );
#14 = VERTEX_POINT ( 'NONE', #29 ) ;
#15 = DIRECTION ( 'NONE',  ( -1.000000000000000000, 0.000000000000000000, 0.000000000000000000 ) ) ;
#16 = PRESENTATION_LAYER_ASSIGNMENT (  '', '', ( #106 ) ) ;
#17 = CARTESIAN_POINT ( 'NONE',  ( 0.000000000000000000, 0.000000000000000000, 0.000000000000000000 ) ) ;
#18 =( LENGTH_UNIT ( ) NAMED_UNIT ( * ) SI_UNIT ( .MILLI., .METRE. ) );
#19 = CIRCLE ( 'NONE', #165, 7.500000000000000888 ) ;
#20 = PRESENTATION_LAYER_ASSIGNMENT (  '', '', ( #93 ) ) ;
#21 = ADVANCED_FACE ( 'NONE', ( #178 ), #54, .T. ) ;
#22 = DIRECTION ( 'NONE',  ( -0.000000000000000000, -1.000000000000000000, 0.000000000000000000 ) ) ;
#23 = VECTOR ( 'NONE', #62, 1000.000000000000227 ) ;
#24 = CARTESIAN_POINT ( 'NONE',  ( -7.500000000000000888, 0.000000000000000000, 1.350000000000000089 ) ) ;
#25 = DIRECTION ( 'NONE',  ( 1.000000000000000000, -1.224646799147353207E-16, 0.000000000000000000 ) ) ;
#26 = CARTESIAN_POINT ( 'NONE',  ( -4.336808689942017736E-16, 0.000000000000000000, -0.8028761061946902977 ) ) ;
#27 = ORIENTED_EDGE ( 'NONE', *, *, #170, .F. ) ;
#28 = LINE ( 'NONE', #162, #23 ) ;
#29 = CARTESIAN_POINT ( 'NONE',  ( -7.500000000000000888, 0.000000000000000000, 1.350000000000000089 ) ) ;
#30 = DIRECTION ( 'NONE',  ( 1.000000000000000000, 0.000000000000000000, 0.000000000000000000 ) ) ;
#31 = ORIENTED_EDGE ( 'NONE', *, *, #143, .F. ) ;
#32 = EDGE_CURVE ( 'NONE', #104, #14, #50, .T. ) ;
#33 =( LENGTH_UNIT ( ) NAMED_UNIT ( * ) SI_UNIT ( .MILLI., .METRE. ) );
#34 = MECHANICAL_DESIGN_GEOMETRIC_PRESENTATION_REPRESENTATION (  '', ( #93 ), #5 ) ;
#35 = DIRECTION ( 'NONE',  ( 1.000000000000000000, 0.000000000000000000, -0.000000000000000000 ) ) ;
#36 = PRODUCT_DEFINITION_SHAPE ( 'NONE', 'NONE',  #4 ) ;
#37 = DIRECTION ( 'NONE',  ( -0.000000000000000000, -0.000000000000000000, -1.000000000000000000 ) ) ;
#38 = ORIENTED_EDGE ( 'NONE', *, *, #134, .T. ) ;
#39 = CIRCLE ( 'NONE', #147, 7.500000000000000888 ) ;
#40 = ORIENTED_EDGE ( 'NONE', *, *, #159, .T. ) ;
#41 = FILL_AREA_STYLE_COLOUR ( '', #169 ) ;
#42 = ORIENTED_EDGE ( 'NONE', *, *, #98, .T. ) ;
#43 = FACE_OUTER_BOUND ( 'NONE', #150, .T. ) ;
#44 = VERTEX_POINT ( 'NONE', #119 ) ;
#45 = CARTESIAN_POINT ( 'NONE',  ( 7.500000000000000888, 9.184850993605147944E-16, 1.350000000000000089 ) ) ;
#46 = VERTEX_POINT ( 'NONE', #73 ) ;
#47 =( NAMED_UNIT ( * ) SI_UNIT ( $, .STERADIAN. ) SOLID_ANGLE_UNIT ( ) );
#48 = CIRCLE ( 'NONE', #176, 7.802876106194690742 ) ;
#49 = EDGE_CURVE ( 'NONE', #14, #172, #89, .T. ) ;
#50 = CIRCLE ( 'NONE', #78, 7.500000000000000888 ) ;
#51 = VERTEX_POINT ( 'NONE', #99 ) ;
#52 = DIRECTION ( 'NONE',  ( -0.000000000000000000, -0.000000000000000000, 1.000000000000000000 ) ) ;
#53 = UNCERTAINTY_MEASURE_WITH_UNIT (LENGTH_MEASURE( 1.000000000000000082E-05 ), #13, 'distance_accuracy_value', 'NONE');
#54 = CYLINDRICAL_SURFACE ( 'NONE', #135, 7.500000000000000888 ) ;
#55 = PRODUCT_DEFINITION_FORMATION_WITH_SPECIFIED_SOURCE ( 'ÈÎºÎ', '', #97, .NOT_KNOWN. ) ;
#56 = DIRECTION ( 'NONE',  ( -0.000000000000000000, -0.000000000000000000, 1.000000000000000000 ) ) ;
#57 = EDGE_LOOP ( 'NONE', ( #151, #208 ) ) ;
#58 = DIRECTION ( 'NONE',  ( -1.224646799147353207E-16, -1.000000000000000000, -0.000000000000000000 ) ) ;
#59 = ORIENTED_EDGE ( 'NONE', *, *, #128, .F. ) ;
#60 = ADVANCED_FACE ( 'NONE', ( #103 ), #168, .T. ) ;
#61 = PRESENTATION_STYLE_ASSIGNMENT (( #152 ) ) ;
#62 = DIRECTION ( 'NONE',  ( -0.7071067811865460184, 8.659560562354913137E-17, 0.7071067811865490160 ) ) ;
#63 = FACE_OUTER_BOUND ( 'NONE', #57, .T. ) ;
#64 =( NAMED_UNIT ( * ) PLANE_ANGLE_UNIT ( ) SI_UNIT ( $, .RADIAN. ) );
#65 = AXIS2_PLACEMENT_3D ( 'NONE', #182, #79, #35 ) ;
#66 = COLOUR_RGB ( '',1.000000000000000000, 1.000000000000000000, 1.000000000000000000 ) ;
#67 = AXIS2_PLACEMENT_3D ( 'NONE', #74, #144, #145 ) ;
#68 = ORIENTED_EDGE ( 'NONE', *, *, #49, .T. ) ;
#69 = FACE_OUTER_BOUND ( 'NONE', #190, .T. ) ;
#70 = ORIENTED_EDGE ( 'NONE', *, *, #177, .F. ) ;
#71 = CARTESIAN_POINT ( 'NONE',  ( 7.500000000000000888, 9.184850993605147944E-16, 1.350000000000000089 ) ) ;
#72 = ORIENTED_EDGE ( 'NONE', *, *, #148, .T. ) ;
#73 = CARTESIAN_POINT ( 'NONE',  ( -9.114692313739364955E-16, 0.000000000000000000, 7.000000000000000000 ) ) ;
#74 = CARTESIAN_POINT ( 'NONE',  ( 0.000000000000000000, 0.000000000000000000, 0.000000000000000000 ) ) ;
#75 = CYLINDRICAL_SURFACE ( 'NONE', #2, 7.500000000000000888 ) ;
#76 = DIRECTION ( 'NONE',  ( -1.000000000000000000, 0.000000000000000000, 0.000000000000000000 ) ) ;
#77 = FILL_AREA_STYLE_COLOUR ( '', #66 ) ;
#78 = AXIS2_PLACEMENT_3D ( 'NONE', #156, #7, #82 ) ;
#79 = DIRECTION ( 'NONE',  ( 0.000000000000000000, 0.000000000000000000, 1.000000000000000000 ) ) ;
#80 = ADVANCED_FACE ( 'NONE', ( #69 ), #100, .T. ) ;
#81 =( GEOMETRIC_REPRESENTATION_CONTEXT ( 3 ) GLOBAL_UNCERTAINTY_ASSIGNED_CONTEXT ( ( #83 ) ) GLOBAL_UNIT_ASSIGNED_CONTEXT ( ( #33, #64, #183 ) ) REPRESENTATION_CONTEXT ( 'NONE', 'WORKASPACE' ) );
#82 = DIRECTION ( 'NONE',  ( 1.000000000000000000, 0.000000000000000000, 0.000000000000000000 ) ) ;
#83 = UNCERTAINTY_MEASURE_WITH_UNIT (LENGTH_MEASURE( 1.000000000000000082E-05 ), #33, 'distance_accuracy_value', 'NONE');
#84 = ORIENTED_EDGE ( 'NONE', *, *, #3, .F. ) ;
#85 = CARTESIAN_POINT ( 'NONE',  ( -4.336808689942017736E-16, 0.000000000000000000, -0.8028761061946902977 ) ) ;
#86 = DIRECTION ( 'NONE',  ( -0.000000000000000000, -0.000000000000000000, 1.000000000000000000 ) ) ;
#87 = CIRCLE ( 'NONE', #202, 7.802876106194690742 ) ;
#88 = ORIENTED_EDGE ( 'NONE', *, *, #49, .F. ) ;
#89 = LINE ( 'NONE', #24, #96 ) ;
#90 = FACE_OUTER_BOUND ( 'NONE', #188, .T. ) ;
#91 = FACE_OUTER_BOUND ( 'NONE', #136, .T. ) ;
#92 = AXIS2_PLACEMENT_3D ( 'NONE', #139, #56, #164 ) ;
#93 = STYLED_ITEM ( 'NONE', ( #110 ), #186 ) ;
#94 = SHAPE_DEFINITION_REPRESENTATION ( #36, #186 ) ;
#95 = APPLICATION_CONTEXT ( 'automotive_design' ) ;
#96 = VECTOR ( 'NONE', #37, 1000.000000000000000 ) ;
#97 = PRODUCT ( 'GLA11-015-9-NIR', 'GLA11-015-9-NIR', '', ( #109 ) ) ;
#98 = EDGE_CURVE ( 'NONE', #185, #172, #10, .T. ) ;
#99 = CARTESIAN_POINT ( 'NONE',  ( -7.299999999999994493, 9.062386313690410430E-16, 0.000000000000000000 ) ) ;
#100 = CONICAL_SURFACE ( 'NONE', #124, 7.500000000000000888, 0.7853981633974461696 ) ;
#101 = LINE ( 'NONE', #171, #131 ) ;
#102 = CARTESIAN_POINT ( 'NONE',  ( -4.336808689942017736E-16, 0.000000000000000000, -0.8028761061946902977 ) ) ;
#103 = FACE_OUTER_BOUND ( 'NONE', #206, .T. ) ;
#104 = VERTEX_POINT ( 'NONE', #45 ) ;
#105 = DIRECTION ( 'NONE',  ( -0.000000000000000000, -0.000000000000000000, 1.000000000000000000 ) ) ;
#106 = STYLED_ITEM ( 'NONE', ( #61 ), #133 ) ;
#107 = ORIENTED_EDGE ( 'NONE', *, *, #159, .F. ) ;
#108 = CARTESIAN_POINT ( 'NONE',  ( 0.000000000000000000, 0.000000000000000000, 0.2000000000000065892 ) ) ;
#109 = PRODUCT_CONTEXT ( 'NONE', #95, 'mechanical' ) ;
#110 = PRESENTATION_STYLE_ASSIGNMENT (( #1 ) ) ;
#111 = DIRECTION ( 'NONE',  ( 1.000000000000000000, 0.000000000000000000, 0.000000000000000000 ) ) ;
#112 = AXIS2_PLACEMENT_3D ( 'NONE', #85, #173, #76 ) ;
#113 = AXIS2_PLACEMENT_3D ( 'NONE', #141, #175, #209 ) ;
#114 = EDGE_CURVE ( 'NONE', #51, #172, #28, .T. ) ;
#115 = DIRECTION ( 'NONE',  ( -1.000000000000000000, 0.000000000000000000, 0.000000000000000000 ) ) ;
#116 = DIRECTION ( 'NONE',  ( 1.000000000000000000, 0.000000000000000000, 0.000000000000000000 ) ) ;
#117 = FILL_AREA_STYLE ('',( #41 ) ) ;
#118 = AXIS2_PLACEMENT_3D ( 'NONE', #17, #130, #111 ) ;
#119 = CARTESIAN_POINT ( 'NONE',  ( 7.299999999999994493, 0.000000000000000000, 0.000000000000000000 ) ) ;
#120 = DIRECTION ( 'NONE',  ( 0.000000000000000000, 0.000000000000000000, 1.000000000000000000 ) ) ;
#121 = ORIENTED_EDGE ( 'NONE', *, *, #3, .T. ) ;
#122 = LINE ( 'NONE', #71, #213 ) ;
#123 = ORIENTED_EDGE ( 'NONE', *, *, #134, .F. ) ;
#124 = AXIS2_PLACEMENT_3D ( 'NONE', #210, #86, #153 ) ;
#125 = DIRECTION ( 'NONE',  ( -0.000000000000000000, -0.000000000000000000, -1.000000000000000000 ) ) ;
#126 =( NAMED_UNIT ( * ) PLANE_ANGLE_UNIT ( ) SI_UNIT ( $, .RADIAN. ) );
#127 = AXIS2_PLACEMENT_3D ( 'NONE', #137, #52, #116 ) ;
#128 = EDGE_CURVE ( 'NONE', #14, #46, #48, .T. ) ;
#129 = APPLICATION_PROTOCOL_DEFINITION ( 'draft international standard', 'automotive_design', 1998, #197 ) ;
#130 = DIRECTION ( 'NONE',  ( 0.000000000000000000, 0.000000000000000000, 1.000000000000000000 ) ) ;
#131 = VECTOR ( 'NONE', #138, 1000.000000000000227 ) ;
#132 = PRODUCT_DEFINITION_CONTEXT ( 'detailed design', #197, 'design' ) ;
#133 = MANIFOLD_SOLID_BREP ( 'µ¹½Ç1', #195 ) ;
#134 = EDGE_CURVE ( 'NONE', #172, #185, #19, .T. ) ;
#135 = AXIS2_PLACEMENT_3D ( 'NONE', #140, #192, #115 ) ;
#136 = EDGE_LOOP ( 'NONE', ( #194, #31, #121, #123 ) ) ;
#137 = CARTESIAN_POINT ( 'NONE',  ( 0.000000000000000000, 0.000000000000000000, 0.2000000000000065892 ) ) ;
#138 = DIRECTION ( 'NONE',  ( 0.7071067811865460184, 0.000000000000000000, 0.7071067811865490160 ) ) ;
#139 = CARTESIAN_POINT ( 'NONE',  ( 0.000000000000000000, 0.000000000000000000, 0.2000000000000065892 ) ) ;
#140 = CARTESIAN_POINT ( 'NONE',  ( 0.000000000000000000, 0.000000000000000000, 1.350000000000000089 ) ) ;
#141 = CARTESIAN_POINT ( 'NONE',  ( 0.000000000000000000, 0.000000000000000000, 0.000000000000000000 ) ) ;
#142 = CARTESIAN_POINT ( 'NONE',  ( 0.000000000000000000, 0.000000000000000000, 1.350000000000000089 ) ) ;
#143 = EDGE_CURVE ( 'NONE', #44, #51, #149, .T. ) ;
#144 = DIRECTION ( 'NONE',  ( -0.000000000000000000, -0.000000000000000000, -1.000000000000000000 ) ) ;
#145 = DIRECTION ( 'NONE',  ( 1.000000000000000000, 0.000000000000000000, 0.000000000000000000 ) ) ;
#146 = PLANE ( 'NONE',  #65 ) ;
#147 = AXIS2_PLACEMENT_3D ( 'NONE', #142, #211, #30 ) ;
#148 = EDGE_CURVE ( 'NONE', #104, #46, #87, .T. ) ;
#149 = CIRCLE ( 'NONE', #113, 7.299999999999994493 ) ;
#150 = EDGE_LOOP ( 'NONE', ( #161, #204, #205 ) ) ;
#151 = ORIENTED_EDGE ( 'NONE', *, *, #143, .T. ) ;
#152 = SURFACE_STYLE_USAGE ( .BOTH. , #160 ) ;
#153 = DIRECTION ( 'NONE',  ( 1.000000000000000000, 0.000000000000000000, 0.000000000000000000 ) ) ;
#154 = DIRECTION ( 'NONE',  ( 1.000000000000000000, 0.000000000000000000, 0.000000000000000000 ) ) ;
#155 = MECHANICAL_DESIGN_GEOMETRIC_PRESENTATION_REPRESENTATION (  '', ( #106 ), #163 ) ;
#156 = CARTESIAN_POINT ( 'NONE',  ( 0.000000000000000000, 0.000000000000000000, 1.350000000000000089 ) ) ;
#157 = SURFACE_STYLE_FILL_AREA ( #117 ) ;
#158 = ORIENTED_EDGE ( 'NONE', *, *, #32, .F. ) ;
#159 = EDGE_CURVE ( 'NONE', #104, #185, #122, .T. ) ;
#160 = SURFACE_SIDE_STYLE ('',( #157 ) ) ;
#161 = ORIENTED_EDGE ( 'NONE', *, *, #148, .F. ) ;
#162 = CARTESIAN_POINT ( 'NONE',  ( -7.500000000000000888, 9.184850993605149917E-16, 0.2000000000000065892 ) ) ;
#163 =( GEOMETRIC_REPRESENTATION_CONTEXT ( 3 ) GLOBAL_UNCERTAINTY_ASSIGNED_CONTEXT ( ( #53 ) ) GLOBAL_UNIT_ASSIGNED_CONTEXT ( ( #13, #181, #12 ) ) REPRESENTATION_CONTEXT ( 'NONE', 'WORKASPACE' ) );
#164 = DIRECTION ( 'NONE',  ( 1.000000000000000000, 0.000000000000000000, 0.000000000000000000 ) ) ;
#165 = AXIS2_PLACEMENT_3D ( 'NONE', #108, #105, #154 ) ;
#166 = UNCERTAINTY_MEASURE_WITH_UNIT (LENGTH_MEASURE( 1.000000000000000082E-05 ), #18, 'distance_accuracy_value', 'NONE');
#167 = ADVANCED_FACE ( 'NONE', ( #43 ), #191, .T. ) ;
#168 = SPHERICAL_SURFACE ( 'NONE', #203, 7.802876106194690742 ) ;
#169 = COLOUR_RGB ( '',1.000000000000000000, 1.000000000000000000, 1.000000000000000000 ) ;
#170 = EDGE_CURVE ( 'NONE', #51, #44, #184, .T. ) ;
#171 = CARTESIAN_POINT ( 'NONE',  ( 7.500000000000000888, 0.000000000000000000, 0.2000000000000065892 ) ) ;
#172 = VERTEX_POINT ( 'NONE', #179 ) ;
#173 = DIRECTION ( 'NONE',  ( -0.000000000000000000, -1.000000000000000000, 0.000000000000000000 ) ) ;
#174 = ORIENTED_EDGE ( 'NONE', *, *, #114, .T. ) ;
#175 = DIRECTION ( 'NONE',  ( -0.000000000000000000, -0.000000000000000000, -1.000000000000000000 ) ) ;
#176 = AXIS2_PLACEMENT_3D ( 'NONE', #207, #196, #120 ) ;
#177 = EDGE_CURVE ( 'NONE', #14, #104, #39, .T. ) ;
#178 = FACE_OUTER_BOUND ( 'NONE', #11, .T. ) ;
#179 = CARTESIAN_POINT ( 'NONE',  ( -7.500000000000000888, 0.000000000000000000, 0.2000000000000065892 ) ) ;
#180 = PRODUCT_RELATED_PRODUCT_CATEGORY ( 'part', '', ( #97 ) ) ;
#181 =( NAMED_UNIT ( * ) PLANE_ANGLE_UNIT ( ) SI_UNIT ( $, .RADIAN. ) );
#182 = CARTESIAN_POINT ( 'NONE',  ( 0.000000000000000000, 0.000000000000000000, 0.000000000000000000 ) ) ;
#183 =( NAMED_UNIT ( * ) SI_UNIT ( $, .STERADIAN. ) SOLID_ANGLE_UNIT ( ) );
#184 = CIRCLE ( 'NONE', #67, 7.299999999999994493 ) ;
#185 = VERTEX_POINT ( 'NONE', #8 ) ;
#186 = ADVANCED_BREP_SHAPE_REPRESENTATION ( 'GLA11-015-9-NIR', ( #133, #118 ), #81 ) ;
#187 = ADVANCED_FACE ( 'NONE', ( #90 ), #75, .T. ) ;
#188 = EDGE_LOOP ( 'NONE', ( #158, #40, #42, #88 ) ) ;
#189 = CONICAL_SURFACE ( 'NONE', #92, 7.500000000000000888, 0.7853981633974461696 ) ;
#190 = EDGE_LOOP ( 'NONE', ( #27, #174, #9, #84 ) ) ;
#191 = SPHERICAL_SURFACE ( 'NONE', #112, 7.802876106194690742 ) ;
#192 = DIRECTION ( 'NONE',  ( -0.000000000000000000, -0.000000000000000000, -1.000000000000000000 ) ) ;
#193 = DIRECTION ( 'NONE',  ( -0.000000000000000000, -0.000000000000000000, -1.000000000000000000 ) ) ;
#194 = ORIENTED_EDGE ( 'NONE', *, *, #114, .F. ) ;
#195 = CLOSED_SHELL ( 'NONE', ( #80, #60, #187, #21, #214, #167, #200 ) ) ;
#196 = DIRECTION ( 'NONE',  ( 0.000000000000000000, 1.000000000000000000, 0.000000000000000000 ) ) ;
#197 = APPLICATION_CONTEXT ( 'automotive_design' ) ;
#198 = APPLICATION_PROTOCOL_DEFINITION ( 'draft international standard', 'automotive_design', 1998, #95 ) ;
#199 = FILL_AREA_STYLE ('',( #77 ) ) ;
#200 = ADVANCED_FACE ( 'NONE', ( #91 ), #189, .T. ) ;
#201 = SURFACE_SIDE_STYLE ('',( #215 ) ) ;
#202 = AXIS2_PLACEMENT_3D ( 'NONE', #102, #58, #25 ) ;
#203 = AXIS2_PLACEMENT_3D ( 'NONE', #26, #22, #6 ) ;
#204 = ORIENTED_EDGE ( 'NONE', *, *, #32, .T. ) ;
#205 = ORIENTED_EDGE ( 'NONE', *, *, #128, .T. ) ;
#206 = EDGE_LOOP ( 'NONE', ( #216, #72, #59 ) ) ;
#207 = CARTESIAN_POINT ( 'NONE',  ( -4.336808689942017736E-16, 0.000000000000000000, -0.8028761061946902977 ) ) ;
#208 = ORIENTED_EDGE ( 'NONE', *, *, #170, .T. ) ;
#209 = DIRECTION ( 'NONE',  ( 1.000000000000000000, 0.000000000000000000, 0.000000000000000000 ) ) ;
#210 = CARTESIAN_POINT ( 'NONE',  ( 0.000000000000000000, 0.000000000000000000, 0.2000000000000065892 ) ) ;
#211 = DIRECTION ( 'NONE',  ( 0.000000000000000000, 0.000000000000000000, 1.000000000000000000 ) ) ;
#212 = CARTESIAN_POINT ( 'NONE',  ( 0.000000000000000000, 0.000000000000000000, 1.350000000000000089 ) ) ;
#213 = VECTOR ( 'NONE', #193, 1000.000000000000000 ) ;
#214 = ADVANCED_FACE ( 'NONE', ( #63 ), #146, .F. ) ;
#215 = SURFACE_STYLE_FILL_AREA ( #199 ) ;
#216 = ORIENTED_EDGE ( 'NONE', *, *, #177, .T. ) ;
ENDSEC;
END-ISO-10303-21;
