ISO-10303-21;
HEADER;
FILE_DESCRIPTION (( 'STEP AP214' ),
    '1' );
FILE_NAME ('GLA11-010-010-H-VIS.STEP',
    '2024-08-09T08:33:25',
    ( 'Windows User' ),
    ( 'P R C' ),
    'SwSTEP 2.0',
    'SolidWorks 2022',
    '' );
FILE_SCHEMA (( 'AUTOMOTIVE_DESIGN' ));
ENDSEC;

DATA;
#1 = VECTOR ( 'NONE', #156, 1000.000000000000114 ) ;
#2 = DIRECTION ( 'NONE',  ( 0.000000000000000000, 1.000000000000000000, 0.000000000000000000 ) ) ;
#3 = DIRECTION ( 'NONE',  ( 0.000000000000000000, 0.000000000000000000, 1.000000000000000000 ) ) ;
#4 = DIRECTION ( 'NONE',  ( -0.000000000000000000, -0.000000000000000000, -1.000000000000000000 ) ) ;
#5 = FACE_OUTER_BOUND ( 'NONE', #216, .T. ) ;
#6 = FILL_AREA_STYLE_COLOUR ( '', #109 ) ;
#7 = CARTESIAN_POINT ( 'NONE',  ( -4.799999999999999822, 6.000769315822030740E-16, 0.000000000000000000 ) ) ;
#8 = UNCERTAINTY_MEASURE_WITH_UNIT (LENGTH_MEASURE( 1.000000000000000082E-05 ), #53, 'distance_accuracy_value', 'NONE');
#9 = CARTESIAN_POINT ( 'NONE',  ( 0.000000000000000000, 0.000000000000000000, -0.7260493827160492408 ) ) ;
#10 = CARTESIAN_POINT ( 'NONE',  ( 0.000000000000000000, 0.000000000000000000, 0.2000000000000005107 ) ) ;
#11 = CARTESIAN_POINT ( 'NONE',  ( 0.000000000000000000, 0.000000000000000000, 0.000000000000000000 ) ) ;
#12 = DIRECTION ( 'NONE',  ( 1.000000000000000000, 0.000000000000000000, 0.000000000000000000 ) ) ;
#13 = CARTESIAN_POINT ( 'NONE',  ( 0.000000000000000000, 0.000000000000000000, 6.179999999999999716 ) ) ;
#14 = VERTEX_POINT ( 'NONE', #129 ) ;
#15 = STYLED_ITEM ( 'NONE', ( #192 ), #111 ) ;
#16 = DIRECTION ( 'NONE',  ( -0.000000000000000000, -0.000000000000000000, 1.000000000000000000 ) ) ;
#17 = DIRECTION ( 'NONE',  ( 1.000000000000000000, 0.000000000000000000, -0.000000000000000000 ) ) ;
#18 = DIRECTION ( 'NONE',  ( 1.000000000000000000, -1.224646799147353207E-16, 0.000000000000000000 ) ) ;
#19 = DIRECTION ( 'NONE',  ( 1.000000000000000000, 0.000000000000000000, 0.000000000000000000 ) ) ;
#20 = SPHERICAL_SURFACE ( 'NONE', #67, 8.526049382716049507 ) ;
#21 = CIRCLE ( 'NONE', #128, 5.000000000000000000 ) ;
#22 = FACE_OUTER_BOUND ( 'NONE', #45, .T. ) ;
#23 = EDGE_CURVE ( 'NONE', #93, #14, #168, .T. ) ;
#24 = AXIS2_PLACEMENT_3D ( 'NONE', #169, #65, #85 ) ;
#25 = CIRCLE ( 'NONE', #56, 4.799999999999999822 ) ;
#26 = CARTESIAN_POINT ( 'NONE',  ( 5.000000000000000000, 6.123233995736766282E-16, 0.2000000000000005107 ) ) ;
#27 = CARTESIAN_POINT ( 'NONE',  ( 0.000000000000000000, 0.000000000000000000, 0.000000000000000000 ) ) ;
#28 = ORIENTED_EDGE ( 'NONE', *, *, #106, .T. ) ;
#29 =( NAMED_UNIT ( * ) PLANE_ANGLE_UNIT ( ) SI_UNIT ( $, .RADIAN. ) );
#30 = DIRECTION ( 'NONE',  ( -0.000000000000000000, -0.000000000000000000, -1.000000000000000000 ) ) ;
#31 = PRODUCT_DEFINITION ( 'Î´Öª', '', #127, #139 ) ;
#32 = CARTESIAN_POINT ( 'NONE',  ( -5.000000000000000000, 0.000000000000000000, 6.179999999999999716 ) ) ;
#33 = ORIENTED_EDGE ( 'NONE', *, *, #23, .T. ) ;
#34 = AXIS2_PLACEMENT_3D ( 'NONE', #173, #68, #138 ) ;
#35 = UNCERTAINTY_MEASURE_WITH_UNIT (LENGTH_MEASURE( 1.000000000000000082E-05 ), #42, 'distance_accuracy_value', 'NONE');
#36 = DIRECTION ( 'NONE',  ( 1.000000000000000000, 0.000000000000000000, 0.000000000000000000 ) ) ;
#37 = SURFACE_STYLE_USAGE ( .BOTH. , #142 ) ;
#38 = DIRECTION ( 'NONE',  ( -1.224646799147353207E-16, -1.000000000000000000, 2.592177402131605641E-32 ) ) ;
#39 = AXIS2_PLACEMENT_3D ( 'NONE', #116, #155, #17 ) ;
#40 = DIRECTION ( 'NONE',  ( -0.000000000000000000, -0.000000000000000000, -1.000000000000000000 ) ) ;
#41 = FACE_OUTER_BOUND ( 'NONE', #69, .T. ) ;
#42 =( LENGTH_UNIT ( ) NAMED_UNIT ( * ) SI_UNIT ( .MILLI., .METRE. ) );
#43 = CLOSED_SHELL ( 'NONE', ( #150, #135, #152, #163, #58, #141, #183 ) ) ;
#44 = STYLED_ITEM ( 'NONE', ( #144 ), #145 ) ;
#45 = EDGE_LOOP ( 'NONE', ( #212, #203, #189, #136 ) ) ;
#46 = ORIENTED_EDGE ( 'NONE', *, *, #83, .F. ) ;
#47 = DIRECTION ( 'NONE',  ( 1.000000000000000000, 0.000000000000000000, 0.000000000000000000 ) ) ;
#48 = CIRCLE ( 'NONE', #201, 8.526049382716049507 ) ;
#49 = CARTESIAN_POINT ( 'NONE',  ( 0.000000000000000000, 0.000000000000000000, 0.000000000000000000 ) ) ;
#50 = EDGE_LOOP ( 'NONE', ( #159, #28, #62 ) ) ;
#51 =( NAMED_UNIT ( * ) PLANE_ANGLE_UNIT ( ) SI_UNIT ( $, .RADIAN. ) );
#52 = DIRECTION ( 'NONE',  ( 1.000000000000000000, 0.000000000000000000, 0.000000000000000000 ) ) ;
#53 =( LENGTH_UNIT ( ) NAMED_UNIT ( * ) SI_UNIT ( .MILLI., .METRE. ) );
#54 = MECHANICAL_DESIGN_GEOMETRIC_PRESENTATION_REPRESENTATION (  '', ( #15 ), #61 ) ;
#55 = FACE_OUTER_BOUND ( 'NONE', #172, .T. ) ;
#56 = AXIS2_PLACEMENT_3D ( 'NONE', #27, #30, #52 ) ;
#57 = PRODUCT ( 'GLA11-010-010-H-VIS', 'GLA11-010-010-H-VIS', '', ( #70 ) ) ;
#58 = ADVANCED_FACE ( 'NONE', ( #185 ), #84, .F. ) ;
#59 = DIRECTION ( 'NONE',  ( -0.000000000000000000, -0.000000000000000000, 1.000000000000000000 ) ) ;
#60 = SURFACE_STYLE_FILL_AREA ( #180 ) ;
#61 =( GEOMETRIC_REPRESENTATION_CONTEXT ( 3 ) GLOBAL_UNCERTAINTY_ASSIGNED_CONTEXT ( ( #213 ) ) GLOBAL_UNIT_ASSIGNED_CONTEXT ( ( #118, #29, #94 ) ) REPRESENTATION_CONTEXT ( 'NONE', 'WORKASPACE' ) );
#62 = ORIENTED_EDGE ( 'NONE', *, *, #63, .T. ) ;
#63 = EDGE_CURVE ( 'NONE', #158, #100, #146, .T. ) ;
#64 = ORIENTED_EDGE ( 'NONE', *, *, #119, .T. ) ;
#65 = DIRECTION ( 'NONE',  ( -0.000000000000000000, -0.000000000000000000, 1.000000000000000000 ) ) ;
#66 = ORIENTED_EDGE ( 'NONE', *, *, #198, .F. ) ;
#67 = AXIS2_PLACEMENT_3D ( 'NONE', #207, #179, #89 ) ;
#68 = DIRECTION ( 'NONE',  ( -0.000000000000000000, -0.000000000000000000, -1.000000000000000000 ) ) ;
#69 = EDGE_LOOP ( 'NONE', ( #131, #199, #117 ) ) ;
#70 = PRODUCT_CONTEXT ( 'NONE', #75, 'mechanical' ) ;
#71 = PRESENTATION_LAYER_ASSIGNMENT (  '', '', ( #44 ) ) ;
#72 = SURFACE_STYLE_FILL_AREA ( #121 ) ;
#73 = SURFACE_SIDE_STYLE ('',( #60 ) ) ;
#74 = PRESENTATION_LAYER_ASSIGNMENT (  '', '', ( #15 ) ) ;
#75 = APPLICATION_CONTEXT ( 'automotive_design' ) ;
#76 =( NAMED_UNIT ( * ) SI_UNIT ( $, .STERADIAN. ) SOLID_ANGLE_UNIT ( ) );
#77 = DIRECTION ( 'NONE',  ( -0.000000000000000000, -0.000000000000000000, 1.000000000000000000 ) ) ;
#78 = AXIS2_PLACEMENT_3D ( 'NONE', #187, #2, #110 ) ;
#79 = EDGE_CURVE ( 'NONE', #214, #175, #25, .T. ) ;
#80 = AXIS2_PLACEMENT_3D ( 'NONE', #102, #16, #206 ) ;
#81 = DIRECTION ( 'NONE',  ( 0.000000000000000000, 0.000000000000000000, 1.000000000000000000 ) ) ;
#82 = CARTESIAN_POINT ( 'NONE',  ( 1.282616307467394799E-15, 0.000000000000000000, 7.799999999999999822 ) ) ;
#83 = EDGE_CURVE ( 'NONE', #175, #214, #157, .T. ) ;
#84 = PLANE ( 'NONE',  #39 ) ;
#85 = DIRECTION ( 'NONE',  ( 1.000000000000000000, 0.000000000000000000, 0.000000000000000000 ) ) ;
#86 =( GEOMETRIC_REPRESENTATION_CONTEXT ( 3 ) GLOBAL_UNCERTAINTY_ASSIGNED_CONTEXT ( ( #35 ) ) GLOBAL_UNIT_ASSIGNED_CONTEXT ( ( #42, #208, #76 ) ) REPRESENTATION_CONTEXT ( 'NONE', 'WORKASPACE' ) );
#87 = FACE_OUTER_BOUND ( 'NONE', #153, .T. ) ;
#88 = DIRECTION ( 'NONE',  ( -1.000000000000000000, 0.000000000000000000, 0.000000000000000000 ) ) ;
#89 = DIRECTION ( 'NONE',  ( -1.000000000000000000, 0.000000000000000000, 2.161779284274105160E-16 ) ) ;
#90 = LINE ( 'NONE', #195, #190 ) ;
#91 = VECTOR ( 'NONE', #137, 1000.000000000000114 ) ;
#92 = CARTESIAN_POINT ( 'NONE',  ( 0.000000000000000000, 0.000000000000000000, 6.179999999999999716 ) ) ;
#93 = VERTEX_POINT ( 'NONE', #26 ) ;
#94 =( NAMED_UNIT ( * ) SI_UNIT ( $, .STERADIAN. ) SOLID_ANGLE_UNIT ( ) );
#95 = ORIENTED_EDGE ( 'NONE', *, *, #83, .T. ) ;
#96 = CYLINDRICAL_SURFACE ( 'NONE', #194, 5.000000000000000000 ) ;
#97 = ORIENTED_EDGE ( 'NONE', *, *, #108, .F. ) ;
#98 = PRODUCT_RELATED_PRODUCT_CATEGORY ( 'part', '', ( #57 ) ) ;
#99 = CARTESIAN_POINT ( 'NONE',  ( 4.799999999999999822, 0.000000000000000000, 0.000000000000000000 ) ) ;
#100 = VERTEX_POINT ( 'NONE', #82 ) ;
#101 = EDGE_CURVE ( 'NONE', #158, #151, #114, .T. ) ;
#102 = CARTESIAN_POINT ( 'NONE',  ( 0.000000000000000000, 0.000000000000000000, 0.2000000000000005107 ) ) ;
#103 = LINE ( 'NONE', #209, #210 ) ;
#104 = DIRECTION ( 'NONE',  ( -0.000000000000000000, -0.000000000000000000, -1.000000000000000000 ) ) ;
#105 = FILL_AREA_STYLE_COLOUR ( '', #197 ) ;
#106 = EDGE_CURVE ( 'NONE', #151, #158, #149, .T. ) ;
#107 = APPLICATION_CONTEXT ( 'automotive_design' ) ;
#108 = EDGE_CURVE ( 'NONE', #158, #14, #90, .T. ) ;
#109 = COLOUR_RGB ( '',1.000000000000000000, 1.000000000000000000, 1.000000000000000000 ) ;
#110 = DIRECTION ( 'NONE',  ( 0.000000000000000000, 0.000000000000000000, 1.000000000000000000 ) ) ;
#111 = ADVANCED_BREP_SHAPE_REPRESENTATION ( 'GLA11-010-010-H-VIS', ( #145, #140 ), #123 ) ;
#112 = ORIENTED_EDGE ( 'NONE', *, *, #79, .T. ) ;
#113 = SHAPE_DEFINITION_REPRESENTATION ( #160, #111 ) ;
#114 = CIRCLE ( 'NONE', #181, 5.000000000000000000 ) ;
#115 = EDGE_LOOP ( 'NONE', ( #95, #112 ) ) ;
#116 = CARTESIAN_POINT ( 'NONE',  ( 0.000000000000000000, 0.000000000000000000, 0.000000000000000000 ) ) ;
#117 = ORIENTED_EDGE ( 'NONE', *, *, #63, .F. ) ;
#118 =( LENGTH_UNIT ( ) NAMED_UNIT ( * ) SI_UNIT ( .MILLI., .METRE. ) );
#119 = EDGE_CURVE ( 'NONE', #151, #93, #103, .T. ) ;
#120 = CYLINDRICAL_SURFACE ( 'NONE', #34, 5.000000000000000000 ) ;
#121 = FILL_AREA_STYLE ('',( #6 ) ) ;
#122 = AXIS2_PLACEMENT_3D ( 'NONE', #11, #184, #12 ) ;
#123 =( GEOMETRIC_REPRESENTATION_CONTEXT ( 3 ) GLOBAL_UNCERTAINTY_ASSIGNED_CONTEXT ( ( #8 ) ) GLOBAL_UNIT_ASSIGNED_CONTEXT ( ( #53, #51, #176 ) ) REPRESENTATION_CONTEXT ( 'NONE', 'WORKASPACE' ) );
#124 = SPHERICAL_SURFACE ( 'NONE', #178, 8.526049382716049507 ) ;
#125 = EDGE_CURVE ( 'NONE', #151, #100, #48, .T. ) ;
#126 = DIRECTION ( 'NONE',  ( -1.000000000000000000, 0.000000000000000000, 2.161779284274105160E-16 ) ) ;
#127 = PRODUCT_DEFINITION_FORMATION_WITH_SPECIFIED_SOURCE ( 'ÈÎºÎ', '', #57, .NOT_KNOWN. ) ;
#128 = AXIS2_PLACEMENT_3D ( 'NONE', #166, #59, #182 ) ;
#129 = CARTESIAN_POINT ( 'NONE',  ( -5.000000000000000000, 0.000000000000000000, 0.2000000000000005107 ) ) ;
#130 = ORIENTED_EDGE ( 'NONE', *, *, #101, .F. ) ;
#131 = ORIENTED_EDGE ( 'NONE', *, *, #101, .T. ) ;
#132 = CONICAL_SURFACE ( 'NONE', #211, 5.000000000000000000, 0.7853981633974482790 ) ;
#133 = ORIENTED_EDGE ( 'NONE', *, *, #106, .F. ) ;
#134 = CARTESIAN_POINT ( 'NONE',  ( -5.000000000000000000, 6.123233995736766282E-16, 0.2000000000000005107 ) ) ;
#135 = ADVANCED_FACE ( 'NONE', ( #41 ), #20, .T. ) ;
#136 = ORIENTED_EDGE ( 'NONE', *, *, #191, .F. ) ;
#137 = DIRECTION ( 'NONE',  ( 0.7071067811865474617, 0.000000000000000000, 0.7071067811865474617 ) ) ;
#138 = DIRECTION ( 'NONE',  ( -1.000000000000000000, 0.000000000000000000, 0.000000000000000000 ) ) ;
#139 = PRODUCT_DEFINITION_CONTEXT ( 'detailed design', #107, 'design' ) ;
#140 = AXIS2_PLACEMENT_3D ( 'NONE', #49, #3, #154 ) ;
#141 = ADVANCED_FACE ( 'NONE', ( #161 ), #124, .T. ) ;
#142 = SURFACE_SIDE_STYLE ('',( #72 ) ) ;
#143 = ORIENTED_EDGE ( 'NONE', *, *, #147, .T. ) ;
#144 = PRESENTATION_STYLE_ASSIGNMENT (( #162 ) ) ;
#145 = MANIFOLD_SOLID_BREP ( 'µ¹½Ç1', #43 ) ;
#146 = CIRCLE ( 'NONE', #78, 8.526049382716049507 ) ;
#147 = EDGE_CURVE ( 'NONE', #14, #93, #21, .T. ) ;
#148 = CARTESIAN_POINT ( 'NONE',  ( 0.000000000000000000, 0.000000000000000000, -0.7260493827160492408 ) ) ;
#149 = CIRCLE ( 'NONE', #205, 5.000000000000000000 ) ;
#150 = ADVANCED_FACE ( 'NONE', ( #22 ), #132, .T. ) ;
#151 = VERTEX_POINT ( 'NONE', #188 ) ;
#152 = ADVANCED_FACE ( 'NONE', ( #5 ), #120, .T. ) ;
#153 = EDGE_LOOP ( 'NONE', ( #170, #130, #202, #143 ) ) ;
#154 = DIRECTION ( 'NONE',  ( 1.000000000000000000, 0.000000000000000000, 0.000000000000000000 ) ) ;
#155 = DIRECTION ( 'NONE',  ( 0.000000000000000000, 0.000000000000000000, 1.000000000000000000 ) ) ;
#156 = DIRECTION ( 'NONE',  ( -0.7071067811865474617, 8.659560562354932858E-17, 0.7071067811865474617 ) ) ;
#157 = CIRCLE ( 'NONE', #122, 4.799999999999999822 ) ;
#158 = VERTEX_POINT ( 'NONE', #32 ) ;
#159 = ORIENTED_EDGE ( 'NONE', *, *, #125, .F. ) ;
#160 = PRODUCT_DEFINITION_SHAPE ( 'NONE', 'NONE',  #31 ) ;
#161 = FACE_OUTER_BOUND ( 'NONE', #50, .T. ) ;
#162 = SURFACE_STYLE_USAGE ( .BOTH. , #73 ) ;
#163 = ADVANCED_FACE ( 'NONE', ( #87 ), #96, .T. ) ;
#164 = CONICAL_SURFACE ( 'NONE', #80, 5.000000000000000000, 0.7853981633974482790 ) ;
#165 = DIRECTION ( 'NONE',  ( 0.000000000000000000, -1.000000000000000000, 0.000000000000000000 ) ) ;
#166 = CARTESIAN_POINT ( 'NONE',  ( 0.000000000000000000, 0.000000000000000000, 0.2000000000000005107 ) ) ;
#167 = ORIENTED_EDGE ( 'NONE', *, *, #147, .F. ) ;
#168 = CIRCLE ( 'NONE', #24, 5.000000000000000000 ) ;
#169 = CARTESIAN_POINT ( 'NONE',  ( 0.000000000000000000, 0.000000000000000000, 0.2000000000000005107 ) ) ;
#170 = ORIENTED_EDGE ( 'NONE', *, *, #119, .F. ) ;
#171 = APPLICATION_PROTOCOL_DEFINITION ( 'draft international standard', 'automotive_design', 1998, #75 ) ;
#172 = EDGE_LOOP ( 'NONE', ( #66, #46, #200, #167 ) ) ;
#173 = CARTESIAN_POINT ( 'NONE',  ( 0.000000000000000000, 0.000000000000000000, 6.179999999999999716 ) ) ;
#174 = MECHANICAL_DESIGN_GEOMETRIC_PRESENTATION_REPRESENTATION (  '', ( #44 ), #86 ) ;
#175 = VERTEX_POINT ( 'NONE', #99 ) ;
#176 =( NAMED_UNIT ( * ) SI_UNIT ( $, .STERADIAN. ) SOLID_ANGLE_UNIT ( ) );
#177 = LINE ( 'NONE', #193, #91 ) ;
#178 = AXIS2_PLACEMENT_3D ( 'NONE', #9, #165, #126 ) ;
#179 = DIRECTION ( 'NONE',  ( 0.000000000000000000, -1.000000000000000000, 0.000000000000000000 ) ) ;
#180 = FILL_AREA_STYLE ('',( #105 ) ) ;
#181 = AXIS2_PLACEMENT_3D ( 'NONE', #92, #81, #47 ) ;
#182 = DIRECTION ( 'NONE',  ( 1.000000000000000000, 0.000000000000000000, 0.000000000000000000 ) ) ;
#183 = ADVANCED_FACE ( 'NONE', ( #55 ), #164, .T. ) ;
#184 = DIRECTION ( 'NONE',  ( -0.000000000000000000, -0.000000000000000000, -1.000000000000000000 ) ) ;
#185 = FACE_OUTER_BOUND ( 'NONE', #115, .T. ) ;
#186 = CARTESIAN_POINT ( 'NONE',  ( 0.000000000000000000, 0.000000000000000000, 6.179999999999999716 ) ) ;
#187 = CARTESIAN_POINT ( 'NONE',  ( 0.000000000000000000, 0.000000000000000000, -0.7260493827160492408 ) ) ;
#188 = CARTESIAN_POINT ( 'NONE',  ( 5.000000000000000000, 6.123233995736766282E-16, 6.179999999999999716 ) ) ;
#189 = ORIENTED_EDGE ( 'NONE', *, *, #23, .F. ) ;
#190 = VECTOR ( 'NONE', #104, 1000.000000000000000 ) ;
#191 = EDGE_CURVE ( 'NONE', #175, #93, #177, .T. ) ;
#192 = PRESENTATION_STYLE_ASSIGNMENT (( #37 ) ) ;
#193 = CARTESIAN_POINT ( 'NONE',  ( 5.000000000000000000, 0.000000000000000000, 0.2000000000000005107 ) ) ;
#194 = AXIS2_PLACEMENT_3D ( 'NONE', #13, #4, #88 ) ;
#195 = CARTESIAN_POINT ( 'NONE',  ( -5.000000000000000000, 0.000000000000000000, 6.179999999999999716 ) ) ;
#196 = DIRECTION ( 'NONE',  ( 0.000000000000000000, 0.000000000000000000, 1.000000000000000000 ) ) ;
#197 = COLOUR_RGB ( '',1.000000000000000000, 1.000000000000000000, 1.000000000000000000 ) ;
#198 = EDGE_CURVE ( 'NONE', #214, #14, #204, .T. ) ;
#199 = ORIENTED_EDGE ( 'NONE', *, *, #125, .T. ) ;
#200 = ORIENTED_EDGE ( 'NONE', *, *, #191, .T. ) ;
#201 = AXIS2_PLACEMENT_3D ( 'NONE', #148, #38, #18 ) ;
#202 = ORIENTED_EDGE ( 'NONE', *, *, #108, .T. ) ;
#203 = ORIENTED_EDGE ( 'NONE', *, *, #198, .T. ) ;
#204 = LINE ( 'NONE', #134, #1 ) ;
#205 = AXIS2_PLACEMENT_3D ( 'NONE', #186, #196, #19 ) ;
#206 = DIRECTION ( 'NONE',  ( 1.000000000000000000, 0.000000000000000000, 0.000000000000000000 ) ) ;
#207 = CARTESIAN_POINT ( 'NONE',  ( 0.000000000000000000, 0.000000000000000000, -0.7260493827160492408 ) ) ;
#208 =( NAMED_UNIT ( * ) PLANE_ANGLE_UNIT ( ) SI_UNIT ( $, .RADIAN. ) );
#209 = CARTESIAN_POINT ( 'NONE',  ( 5.000000000000000000, 6.123233995736766282E-16, 6.179999999999999716 ) ) ;
#210 = VECTOR ( 'NONE', #40, 1000.000000000000000 ) ;
#211 = AXIS2_PLACEMENT_3D ( 'NONE', #10, #77, #36 ) ;
#212 = ORIENTED_EDGE ( 'NONE', *, *, #79, .F. ) ;
#213 = UNCERTAINTY_MEASURE_WITH_UNIT (LENGTH_MEASURE( 1.000000000000000082E-05 ), #118, 'distance_accuracy_value', 'NONE');
#214 = VERTEX_POINT ( 'NONE', #7 ) ;
#215 = APPLICATION_PROTOCOL_DEFINITION ( 'draft international standard', 'automotive_design', 1998, #107 ) ;
#216 = EDGE_LOOP ( 'NONE', ( #133, #64, #33, #97 ) ) ;
ENDSEC;
END-ISO-10303-21;
