ISO-10303-21;
HEADER;
FILE_DESCRIPTION (( 'STEP AP214' ),
    '1' );
FILE_NAME ('GLA11-020-015-H-VIS.STEP',
    '2024-08-09T08:36:05',
    ( 'Windows User' ),
    ( 'P R C' ),
    'SwSTEP 2.0',
    'SolidWorks 2022',
    '' );
FILE_SCHEMA (( 'AUTOMOTIVE_DESIGN' ));
ENDSEC;

DATA;
#1 = SURFACE_STYLE_USAGE ( .BOTH. , #87 ) ;
#2 = SURFACE_STYLE_USAGE ( .BOTH. , #199 ) ;
#3 = FILL_AREA_STYLE ('',( #155 ) ) ;
#4 = DIRECTION ( 'NONE',  ( -1.000000000000000000, 0.000000000000000000, 0.000000000000000000 ) ) ;
#5 = CARTESIAN_POINT ( 'NONE',  ( 0.000000000000000000, 0.000000000000000000, 7.969999999999999751 ) ) ;
#6 = MANIFOLD_SOLID_BREP ( 'µ¹½Ç1', #9 ) ;
#7 = COLOUR_RGB ( '',1.000000000000000000, 1.000000000000000000, 1.000000000000000000 ) ;
#8 = AXIS2_PLACEMENT_3D ( 'NONE', #114, #180, #177 ) ;
#9 = CLOSED_SHELL ( 'NONE', ( #43, #83, #104, #36, #153, #160, #132 ) ) ;
#10 = EDGE_CURVE ( 'NONE', #33, #90, #189, .T. ) ;
#11 = AXIS2_PLACEMENT_3D ( 'NONE', #141, #75, #4 ) ;
#12 = CARTESIAN_POINT ( 'NONE',  ( 0.000000000000000000, 0.000000000000000000, 0.000000000000000000 ) ) ;
#13 = FACE_OUTER_BOUND ( 'NONE', #100, .T. ) ;
#14 = VERTEX_POINT ( 'NONE', #136 ) ;
#15 = ORIENTED_EDGE ( 'NONE', *, *, #184, .F. ) ;
#16 = APPLICATION_PROTOCOL_DEFINITION ( 'draft international standard', 'automotive_design', 1998, #68 ) ;
#17 = ORIENTED_EDGE ( 'NONE', *, *, #179, .F. ) ;
#18 = ORIENTED_EDGE ( 'NONE', *, *, #138, .T. ) ;
#19 = EDGE_CURVE ( 'NONE', #183, #103, #205, .T. ) ;
#20 = DIRECTION ( 'NONE',  ( -0.000000000000000000, -0.000000000000000000, 1.000000000000000000 ) ) ;
#21 = VECTOR ( 'NONE', #173, 1000.000000000000114 ) ;
#22 = FACE_OUTER_BOUND ( 'NONE', #52, .T. ) ;
#23 = EDGE_CURVE ( 'NONE', #14, #33, #69, .T. ) ;
#24 = CIRCLE ( 'NONE', #55, 9.799999999999998934 ) ;
#25 = CARTESIAN_POINT ( 'NONE',  ( 0.000000000000000000, 0.000000000000000000, 0.2000000000000005107 ) ) ;
#26 = AXIS2_PLACEMENT_3D ( 'NONE', #139, #192, #174 ) ;
#27 = DIRECTION ( 'NONE',  ( -0.7071067811865474617, 8.659560562354932858E-17, 0.7071067811865474617 ) ) ;
#28 = DIRECTION ( 'NONE',  ( 0.000000000000000000, 0.000000000000000000, 1.000000000000000000 ) ) ;
#29 = VECTOR ( 'NONE', #147, 1000.000000000000000 ) ;
#30 = ORIENTED_EDGE ( 'NONE', *, *, #56, .F. ) ;
#31 = ORIENTED_EDGE ( 'NONE', *, *, #23, .F. ) ;
#32 = MECHANICAL_DESIGN_GEOMETRIC_PRESENTATION_REPRESENTATION (  '', ( #46 ), #62 ) ;
#33 = VERTEX_POINT ( 'NONE', #95 ) ;
#34 = UNCERTAINTY_MEASURE_WITH_UNIT (LENGTH_MEASURE( 1.000000000000000082E-05 ), #85, 'distance_accuracy_value', 'NONE');
#35 = EDGE_LOOP ( 'NONE', ( #31, #88, #64, #15 ) ) ;
#36 = ADVANCED_FACE ( 'NONE', ( #123 ), #108, .T. ) ;
#37 = VERTEX_POINT ( 'NONE', #175 ) ;
#38 = ORIENTED_EDGE ( 'NONE', *, *, #191, .T. ) ;
#39 = CONICAL_SURFACE ( 'NONE', #162, 10.00000000000000000, 0.7853981633974482790 ) ;
#40 =( NAMED_UNIT ( * ) PLANE_ANGLE_UNIT ( ) SI_UNIT ( $, .RADIAN. ) );
#41 = CARTESIAN_POINT ( 'NONE',  ( 0.000000000000000000, 0.000000000000000000, 0.2000000000000005107 ) ) ;
#42 = DIRECTION ( 'NONE',  ( -1.000000000000000000, 0.000000000000000000, 0.000000000000000000 ) ) ;
#43 = ADVANCED_FACE ( 'NONE', ( #73 ), #39, .T. ) ;
#44 = CARTESIAN_POINT ( 'NONE',  ( 0.000000000000000000, 0.000000000000000000, -1.040955056179774019 ) ) ;
#45 = DIRECTION ( 'NONE',  ( -0.000000000000000000, -0.000000000000000000, -1.000000000000000000 ) ) ;
#46 = STYLED_ITEM ( 'NONE', ( #50 ), #6 ) ;
#47 = LINE ( 'NONE', #213, #29 ) ;
#48 =( LENGTH_UNIT ( ) NAMED_UNIT ( * ) SI_UNIT ( .MILLI., .METRE. ) );
#49 = AXIS2_PLACEMENT_3D ( 'NONE', #200, #131, #164 ) ;
#50 = PRESENTATION_STYLE_ASSIGNMENT (( #1 ) ) ;
#51 = AXIS2_PLACEMENT_3D ( 'NONE', #5, #92, #210 ) ;
#52 = EDGE_LOOP ( 'NONE', ( #18, #168, #165 ) ) ;
#53 = ORIENTED_EDGE ( 'NONE', *, *, #23, .T. ) ;
#54 = EDGE_LOOP ( 'NONE', ( #81, #17, #101, #120 ) ) ;
#55 = AXIS2_PLACEMENT_3D ( 'NONE', #145, #133, #115 ) ;
#56 = EDGE_CURVE ( 'NONE', #103, #148, #135, .T. ) ;
#57 = APPLICATION_PROTOCOL_DEFINITION ( 'draft international standard', 'automotive_design', 1998, #149 ) ;
#58 = SHAPE_DEFINITION_REPRESENTATION ( #91, #82 ) ;
#59 = CARTESIAN_POINT ( 'NONE',  ( 0.000000000000000000, 0.000000000000000000, -1.040955056179774019 ) ) ;
#60 = AXIS2_PLACEMENT_3D ( 'NONE', #12, #28, #99 ) ;
#61 = CARTESIAN_POINT ( 'NONE',  ( -10.00000000000000000, 1.224646799147353256E-15, 0.2000000000000005107 ) ) ;
#62 =( GEOMETRIC_REPRESENTATION_CONTEXT ( 3 ) GLOBAL_UNCERTAINTY_ASSIGNED_CONTEXT ( ( #215 ) ) GLOBAL_UNIT_ASSIGNED_CONTEXT ( ( #152, #190, #119 ) ) REPRESENTATION_CONTEXT ( 'NONE', 'WORKASPACE' ) );
#63 = CARTESIAN_POINT ( 'NONE',  ( 10.00000000000000000, 1.224646799147353256E-15, 7.969999999999999751 ) ) ;
#64 = ORIENTED_EDGE ( 'NONE', *, *, #56, .T. ) ;
#65 = AXIS2_PLACEMENT_3D ( 'NONE', #208, #20, #159 ) ;
#66 = UNCERTAINTY_MEASURE_WITH_UNIT (LENGTH_MEASURE( 1.000000000000000082E-05 ), #48, 'distance_accuracy_value', 'NONE');
#67 = ORIENTED_EDGE ( 'NONE', *, *, #127, .T. ) ;
#68 = APPLICATION_CONTEXT ( 'automotive_design' ) ;
#69 = CIRCLE ( 'NONE', #51, 10.00000000000000000 ) ;
#70 = PRODUCT_DEFINITION_FORMATION_WITH_SPECIFIED_SOURCE ( 'ÈÎºÎ', '', #89, .NOT_KNOWN. ) ;
#71 = DIRECTION ( 'NONE',  ( 0.000000000000000000, 1.000000000000000000, 0.000000000000000000 ) ) ;
#72 =( NAMED_UNIT ( * ) SI_UNIT ( $, .STERADIAN. ) SOLID_ANGLE_UNIT ( ) );
#73 = FACE_OUTER_BOUND ( 'NONE', #169, .T. ) ;
#74 = CIRCLE ( 'NONE', #140, 10.00000000000000000 ) ;
#75 = DIRECTION ( 'NONE',  ( -0.000000000000000000, -0.000000000000000000, -1.000000000000000000 ) ) ;
#76 = SPHERICAL_SURFACE ( 'NONE', #196, 13.46095505617977395 ) ;
#77 = DIRECTION ( 'NONE',  ( 1.000000000000000000, -1.224646799147353207E-16, 0.000000000000000000 ) ) ;
#78 = DIRECTION ( 'NONE',  ( -1.000000000000000000, 0.000000000000000000, 0.000000000000000000 ) ) ;
#79 = DIRECTION ( 'NONE',  ( -0.000000000000000000, -0.000000000000000000, -1.000000000000000000 ) ) ;
#80 = DIRECTION ( 'NONE',  ( -0.000000000000000000, -0.000000000000000000, -1.000000000000000000 ) ) ;
#81 = ORIENTED_EDGE ( 'NONE', *, *, #127, .F. ) ;
#82 = ADVANCED_BREP_SHAPE_REPRESENTATION ( 'GLA11-020-015-H-VIS', ( #6, #26 ), #111 ) ;
#83 = ADVANCED_FACE ( 'NONE', ( #22 ), #76, .T. ) ;
#84 = PRODUCT_DEFINITION_CONTEXT ( 'detailed design', #149, 'design' ) ;
#85 =( LENGTH_UNIT ( ) NAMED_UNIT ( * ) SI_UNIT ( .MILLI., .METRE. ) );
#86 = STYLED_ITEM ( 'NONE', ( #102 ), #82 ) ;
#87 = SURFACE_SIDE_STYLE ('',( #105 ) ) ;
#88 = ORIENTED_EDGE ( 'NONE', *, *, #209, .T. ) ;
#89 = PRODUCT ( 'GLA11-020-015-H-VIS', 'GLA11-020-015-H-VIS', '', ( #158 ) ) ;
#90 = VERTEX_POINT ( 'NONE', #110 ) ;
#91 = PRODUCT_DEFINITION_SHAPE ( 'NONE', 'NONE',  #166 ) ;
#92 = DIRECTION ( 'NONE',  ( 0.000000000000000000, 0.000000000000000000, 1.000000000000000000 ) ) ;
#93 = AXIS2_PLACEMENT_3D ( 'NONE', #216, #71, #171 ) ;
#94 =( GEOMETRIC_REPRESENTATION_CONTEXT ( 3 ) GLOBAL_UNCERTAINTY_ASSIGNED_CONTEXT ( ( #34 ) ) GLOBAL_UNIT_ASSIGNED_CONTEXT ( ( #85, #40, #72 ) ) REPRESENTATION_CONTEXT ( 'NONE', 'WORKASPACE' ) );
#95 = CARTESIAN_POINT ( 'NONE',  ( -10.00000000000000000, 0.000000000000000000, 7.969999999999999751 ) ) ;
#96 = FACE_OUTER_BOUND ( 'NONE', #54, .T. ) ;
#97 = DIRECTION ( 'NONE',  ( -0.000000000000000000, -0.000000000000000000, 1.000000000000000000 ) ) ;
#98 =( NAMED_UNIT ( * ) PLANE_ANGLE_UNIT ( ) SI_UNIT ( $, .RADIAN. ) );
#99 = DIRECTION ( 'NONE',  ( 1.000000000000000000, 0.000000000000000000, -0.000000000000000000 ) ) ;
#100 = EDGE_LOOP ( 'NONE', ( #156, #38 ) ) ;
#101 = ORIENTED_EDGE ( 'NONE', *, *, #19, .T. ) ;
#102 = PRESENTATION_STYLE_ASSIGNMENT (( #2 ) ) ;
#103 = VERTEX_POINT ( 'NONE', #109 ) ;
#104 = ADVANCED_FACE ( 'NONE', ( #161 ), #126, .T. ) ;
#105 = SURFACE_STYLE_FILL_AREA ( #3 ) ;
#106 = PRESENTATION_LAYER_ASSIGNMENT (  '', '', ( #46 ) ) ;
#107 = CARTESIAN_POINT ( 'NONE',  ( 10.00000000000000000, 0.000000000000000000, 0.2000000000000005107 ) ) ;
#108 = CYLINDRICAL_SURFACE ( 'NONE', #11, 10.00000000000000000 ) ;
#109 = CARTESIAN_POINT ( 'NONE',  ( 10.00000000000000000, 1.224646799147353256E-15, 0.2000000000000005107 ) ) ;
#110 = CARTESIAN_POINT ( 'NONE',  ( -8.242457761508470905E-16, 0.000000000000000000, 12.41999999999999993 ) ) ;
#111 =( GEOMETRIC_REPRESENTATION_CONTEXT ( 3 ) GLOBAL_UNCERTAINTY_ASSIGNED_CONTEXT ( ( #66 ) ) GLOBAL_UNIT_ASSIGNED_CONTEXT ( ( #48, #98, #151 ) ) REPRESENTATION_CONTEXT ( 'NONE', 'WORKASPACE' ) );
#112 = CIRCLE ( 'NONE', #8, 10.00000000000000000 ) ;
#113 = DIRECTION ( 'NONE',  ( -0.000000000000000000, -1.000000000000000000, 0.000000000000000000 ) ) ;
#114 = CARTESIAN_POINT ( 'NONE',  ( 0.000000000000000000, 0.000000000000000000, 7.969999999999999751 ) ) ;
#115 = DIRECTION ( 'NONE',  ( 1.000000000000000000, 0.000000000000000000, 0.000000000000000000 ) ) ;
#116 = EDGE_CURVE ( 'NONE', #148, #103, #74, .T. ) ;
#117 = ORIENTED_EDGE ( 'NONE', *, *, #116, .T. ) ;
#118 = ORIENTED_EDGE ( 'NONE', *, *, #184, .T. ) ;
#119 =( NAMED_UNIT ( * ) SI_UNIT ( $, .STERADIAN. ) SOLID_ANGLE_UNIT ( ) );
#120 = ORIENTED_EDGE ( 'NONE', *, *, #116, .F. ) ;
#121 = ORIENTED_EDGE ( 'NONE', *, *, #138, .F. ) ;
#122 = EDGE_CURVE ( 'NONE', #14, #90, #194, .T. ) ;
#123 = FACE_OUTER_BOUND ( 'NONE', #214, .T. ) ;
#124 = DIRECTION ( 'NONE',  ( 1.000000000000000000, 0.000000000000000000, 0.000000000000000000 ) ) ;
#125 = VECTOR ( 'NONE', #45, 1000.000000000000000 ) ;
#126 = CYLINDRICAL_SURFACE ( 'NONE', #170, 10.00000000000000000 ) ;
#127 = EDGE_CURVE ( 'NONE', #37, #148, #212, .T. ) ;
#128 = SPHERICAL_SURFACE ( 'NONE', #185, 13.46095505617977395 ) ;
#129 = FILL_AREA_STYLE ('',( #143 ) ) ;
#130 = PRESENTATION_LAYER_ASSIGNMENT (  '', '', ( #86 ) ) ;
#131 = DIRECTION ( 'NONE',  ( -0.000000000000000000, -0.000000000000000000, 1.000000000000000000 ) ) ;
#132 = ADVANCED_FACE ( 'NONE', ( #96 ), #207, .T. ) ;
#133 = DIRECTION ( 'NONE',  ( -0.000000000000000000, -0.000000000000000000, -1.000000000000000000 ) ) ;
#134 = CARTESIAN_POINT ( 'NONE',  ( 9.799999999999998934, 0.000000000000000000, 0.000000000000000000 ) ) ;
#135 = CIRCLE ( 'NONE', #65, 10.00000000000000000 ) ;
#136 = CARTESIAN_POINT ( 'NONE',  ( 10.00000000000000000, 1.224646799147353256E-15, 7.969999999999999751 ) ) ;
#137 = DIRECTION ( 'NONE',  ( -0.000000000000000000, -0.000000000000000000, 1.000000000000000000 ) ) ;
#138 = EDGE_CURVE ( 'NONE', #33, #14, #112, .T. ) ;
#139 = CARTESIAN_POINT ( 'NONE',  ( 0.000000000000000000, 0.000000000000000000, 0.000000000000000000 ) ) ;
#140 = AXIS2_PLACEMENT_3D ( 'NONE', #25, #97, #144 ) ;
#141 = CARTESIAN_POINT ( 'NONE',  ( 0.000000000000000000, 0.000000000000000000, 7.969999999999999751 ) ) ;
#142 = FACE_OUTER_BOUND ( 'NONE', #206, .T. ) ;
#143 = FILL_AREA_STYLE_COLOUR ( '', #7 ) ;
#144 = DIRECTION ( 'NONE',  ( 1.000000000000000000, 0.000000000000000000, 0.000000000000000000 ) ) ;
#145 = CARTESIAN_POINT ( 'NONE',  ( 0.000000000000000000, 0.000000000000000000, 0.000000000000000000 ) ) ;
#146 = CARTESIAN_POINT ( 'NONE',  ( 0.000000000000000000, 0.000000000000000000, -1.040955056179774019 ) ) ;
#147 = DIRECTION ( 'NONE',  ( -0.000000000000000000, -0.000000000000000000, -1.000000000000000000 ) ) ;
#148 = VERTEX_POINT ( 'NONE', #163 ) ;
#149 = APPLICATION_CONTEXT ( 'automotive_design' ) ;
#150 = PRODUCT_RELATED_PRODUCT_CATEGORY ( 'part', '', ( #89 ) ) ;
#151 =( NAMED_UNIT ( * ) SI_UNIT ( $, .STERADIAN. ) SOLID_ANGLE_UNIT ( ) );
#152 =( LENGTH_UNIT ( ) NAMED_UNIT ( * ) SI_UNIT ( .MILLI., .METRE. ) );
#153 = ADVANCED_FACE ( 'NONE', ( #13 ), #182, .F. ) ;
#154 = MECHANICAL_DESIGN_GEOMETRIC_PRESENTATION_REPRESENTATION (  '', ( #86 ), #94 ) ;
#155 = FILL_AREA_STYLE_COLOUR ( '', #186 ) ;
#156 = ORIENTED_EDGE ( 'NONE', *, *, #179, .T. ) ;
#157 = CIRCLE ( 'NONE', #193, 9.799999999999998934 ) ;
#158 = PRODUCT_CONTEXT ( 'NONE', #68, 'mechanical' ) ;
#159 = DIRECTION ( 'NONE',  ( 1.000000000000000000, 0.000000000000000000, 0.000000000000000000 ) ) ;
#160 = ADVANCED_FACE ( 'NONE', ( #142 ), #128, .T. ) ;
#161 = FACE_OUTER_BOUND ( 'NONE', #35, .T. ) ;
#162 = AXIS2_PLACEMENT_3D ( 'NONE', #41, #137, #124 ) ;
#163 = CARTESIAN_POINT ( 'NONE',  ( -10.00000000000000000, 0.000000000000000000, 0.2000000000000005107 ) ) ;
#164 = DIRECTION ( 'NONE',  ( 1.000000000000000000, 0.000000000000000000, 0.000000000000000000 ) ) ;
#165 = ORIENTED_EDGE ( 'NONE', *, *, #10, .F. ) ;
#166 = PRODUCT_DEFINITION ( 'Î´Öª', '', #70, #84 ) ;
#167 = DIRECTION ( 'NONE',  ( 1.000000000000000000, 0.000000000000000000, 0.000000000000000000 ) ) ;
#168 = ORIENTED_EDGE ( 'NONE', *, *, #122, .T. ) ;
#169 = EDGE_LOOP ( 'NONE', ( #187, #67, #30, #188 ) ) ;
#170 = AXIS2_PLACEMENT_3D ( 'NONE', #176, #79, #78 ) ;
#171 = DIRECTION ( 'NONE',  ( 0.000000000000000000, 0.000000000000000000, 1.000000000000000000 ) ) ;
#172 = ORIENTED_EDGE ( 'NONE', *, *, #209, .F. ) ;
#173 = DIRECTION ( 'NONE',  ( 0.7071067811865474617, 0.000000000000000000, 0.7071067811865474617 ) ) ;
#174 = DIRECTION ( 'NONE',  ( 1.000000000000000000, 0.000000000000000000, 0.000000000000000000 ) ) ;
#175 = CARTESIAN_POINT ( 'NONE',  ( -9.799999999999998934, 1.212400331155879505E-15, 0.000000000000000000 ) ) ;
#176 = CARTESIAN_POINT ( 'NONE',  ( 0.000000000000000000, 0.000000000000000000, 7.969999999999999751 ) ) ;
#177 = DIRECTION ( 'NONE',  ( 1.000000000000000000, 0.000000000000000000, 0.000000000000000000 ) ) ;
#178 = AXIS2_PLACEMENT_3D ( 'NONE', #146, #211, #77 ) ;
#179 = EDGE_CURVE ( 'NONE', #183, #37, #157, .T. ) ;
#180 = DIRECTION ( 'NONE',  ( 0.000000000000000000, 0.000000000000000000, 1.000000000000000000 ) ) ;
#181 = SURFACE_STYLE_FILL_AREA ( #129 ) ;
#182 = PLANE ( 'NONE',  #60 ) ;
#183 = VERTEX_POINT ( 'NONE', #134 ) ;
#184 = EDGE_CURVE ( 'NONE', #33, #148, #47, .T. ) ;
#185 = AXIS2_PLACEMENT_3D ( 'NONE', #44, #113, #201 ) ;
#186 = COLOUR_RGB ( '',1.000000000000000000, 1.000000000000000000, 1.000000000000000000 ) ;
#187 = ORIENTED_EDGE ( 'NONE', *, *, #191, .F. ) ;
#188 = ORIENTED_EDGE ( 'NONE', *, *, #19, .F. ) ;
#189 = CIRCLE ( 'NONE', #93, 13.46095505617977395 ) ;
#190 =( NAMED_UNIT ( * ) PLANE_ANGLE_UNIT ( ) SI_UNIT ( $, .RADIAN. ) );
#191 = EDGE_CURVE ( 'NONE', #37, #183, #24, .T. ) ;
#192 = DIRECTION ( 'NONE',  ( 0.000000000000000000, 0.000000000000000000, 1.000000000000000000 ) ) ;
#193 = AXIS2_PLACEMENT_3D ( 'NONE', #198, #80, #167 ) ;
#194 = CIRCLE ( 'NONE', #178, 13.46095505617977395 ) ;
#195 = ORIENTED_EDGE ( 'NONE', *, *, #10, .T. ) ;
#196 = AXIS2_PLACEMENT_3D ( 'NONE', #59, #197, #42 ) ;
#197 = DIRECTION ( 'NONE',  ( -0.000000000000000000, -1.000000000000000000, 0.000000000000000000 ) ) ;
#198 = CARTESIAN_POINT ( 'NONE',  ( 0.000000000000000000, 0.000000000000000000, 0.000000000000000000 ) ) ;
#199 = SURFACE_SIDE_STYLE ('',( #181 ) ) ;
#200 = CARTESIAN_POINT ( 'NONE',  ( 0.000000000000000000, 0.000000000000000000, 0.2000000000000005107 ) ) ;
#201 = DIRECTION ( 'NONE',  ( -1.000000000000000000, 0.000000000000000000, 0.000000000000000000 ) ) ;
#202 = LINE ( 'NONE', #63, #125 ) ;
#203 = VECTOR ( 'NONE', #27, 1000.000000000000114 ) ;
#204 = ORIENTED_EDGE ( 'NONE', *, *, #122, .F. ) ;
#205 = LINE ( 'NONE', #107, #21 ) ;
#206 = EDGE_LOOP ( 'NONE', ( #204, #53, #195 ) ) ;
#207 = CONICAL_SURFACE ( 'NONE', #49, 10.00000000000000000, 0.7853981633974482790 ) ;
#208 = CARTESIAN_POINT ( 'NONE',  ( 0.000000000000000000, 0.000000000000000000, 0.2000000000000005107 ) ) ;
#209 = EDGE_CURVE ( 'NONE', #14, #103, #202, .T. ) ;
#210 = DIRECTION ( 'NONE',  ( 1.000000000000000000, 0.000000000000000000, 0.000000000000000000 ) ) ;
#211 = DIRECTION ( 'NONE',  ( -1.224646799147353207E-16, -1.000000000000000000, -0.000000000000000000 ) ) ;
#212 = LINE ( 'NONE', #61, #203 ) ;
#213 = CARTESIAN_POINT ( 'NONE',  ( -10.00000000000000000, 0.000000000000000000, 7.969999999999999751 ) ) ;
#214 = EDGE_LOOP ( 'NONE', ( #172, #121, #118, #117 ) ) ;
#215 = UNCERTAINTY_MEASURE_WITH_UNIT (LENGTH_MEASURE( 1.000000000000000082E-05 ), #152, 'distance_accuracy_value', 'NONE');
#216 = CARTESIAN_POINT ( 'NONE',  ( 0.000000000000000000, 0.000000000000000000, -1.040955056179774019 ) ) ;
ENDSEC;
END-ISO-10303-21;
