ISO-10303-21;
HEADER;
FILE_DESCRIPTION (( 'STEP AP214' ),
    '1' );
FILE_NAME ('145001.STEP',
    '2019-05-08T02:02:03',
    ( 'user' ),
    ( 'Î¢ÈíÖÐ¹ú' ),
    'SwSTEP 2.0',
    'SolidWorks 2016',
    '' );
FILE_SCHEMA (( 'AUTOMOTIVE_DESIGN' ));
ENDSEC;

DATA;
#1 = ADVANCED_FACE ( 'NONE', ( #178 ), #35, .T. ) ;
#2 = AXIS2_PLACEMENT_3D ( 'NONE', #287, #143, #328 ) ;
#3 = VERTEX_POINT ( 'NONE', #99 ) ;
#4 = FILL_AREA_STYLE_COLOUR ( '', #121 ) ;
#5 = ORIENTED_EDGE ( 'NONE', *, *, #29, .F. ) ;
#6 = AXIS2_PLACEMENT_3D ( 'NONE', #116, #119, #243 ) ;
#7 = CARTESIAN_POINT ( 'NONE',  ( 0.1779653113488418000, 0.0000000000000000000, -1.016439536705160400E-017 ) ) ;
#8 = ORIENTED_EDGE ( 'NONE', *, *, #237, .T. ) ;
#9 = AXIS2_PLACEMENT_3D ( 'NONE', #171, #311, #115 ) ;
#10 = CIRCLE ( 'NONE', #23, 2.000000000000000000 ) ;
#11 = CARTESIAN_POINT ( 'NONE',  ( 1.305624834431970300, 0.0000000000000000000, 0.0000000000000000000 ) ) ;
#12 = ADVANCED_FACE ( 'NONE', ( #242 ), #299, .T. ) ;
#13 = VECTOR ( 'NONE', #345, 1000.000000000000000 ) ;
#14 =( LENGTH_UNIT ( ) NAMED_UNIT ( * ) SI_UNIT ( .MILLI., .METRE. ) );
#15 = DIRECTION ( 'NONE',  ( 0.0000000000000000000, 0.0000000000000000000, 1.000000000000000000 ) ) ;
#16 = VERTEX_POINT ( 'NONE', #154 ) ;
#17 = EDGE_CURVE ( 'NONE', #167, #174, #293, .T. ) ;
#18 = SURFACE_SIDE_STYLE ('',( #200 ) ) ;
#19 = ORIENTED_EDGE ( 'NONE', *, *, #282, .T. ) ;
#20 = AXIS2_PLACEMENT_3D ( 'NONE', #11, #180, #227 ) ;
#21 = ORIENTED_EDGE ( 'NONE', *, *, #125, .T. ) ;
#22 =( NAMED_UNIT ( * ) PLANE_ANGLE_UNIT ( ) SI_UNIT ( $, .RADIAN. ) );
#23 = AXIS2_PLACEMENT_3D ( 'NONE', #189, #304, #33 ) ;
#24 = FACE_OUTER_BOUND ( 'NONE', #323, .T. ) ;
#25 = CARTESIAN_POINT ( 'NONE',  ( 0.4947758637175130300, 2.449293598294706400E-016, -2.000000000000000000 ) ) ;
#26 = ORIENTED_EDGE ( 'NONE', *, *, #257, .F. ) ;
#27 = PRODUCT_CONTEXT ( 'NONE', #52, 'mechanical' ) ;
#28 = DIRECTION ( 'NONE',  ( 0.0000000000000000000, 0.0000000000000000000, 1.000000000000000000 ) ) ;
#29 = EDGE_CURVE ( 'NONE', #246, #134, #105, .T. ) ;
#30 = ADVANCED_BREP_SHAPE_REPRESENTATION ( '145001', ( #187, #316, #74 ), #253 ) ;
#31 = EDGE_LOOP ( 'NONE', ( #285, #163, #263 ) ) ;
#32 = DIRECTION ( 'NONE',  ( 0.0000000000000000000, 0.0000000000000000000, 1.000000000000000000 ) ) ;
#33 = DIRECTION ( 'NONE',  ( 0.0000000000000000000, 0.0000000000000000000, 1.000000000000000000 ) ) ;
#34 = DIRECTION ( 'NONE',  ( -1.000000000000000000, -0.0000000000000000000, -0.0000000000000000000 ) ) ;
#35 = CYLINDRICAL_SURFACE ( 'NONE', #36, 2.000000000000000000 ) ;
#36 = AXIS2_PLACEMENT_3D ( 'NONE', #149, #203, #62 ) ;
#37 =( GEOMETRIC_REPRESENTATION_CONTEXT ( 3 ) GLOBAL_UNCERTAINTY_ASSIGNED_CONTEXT ( ( #97 ) ) GLOBAL_UNIT_ASSIGNED_CONTEXT ( ( #86, #84, #112 ) ) REPRESENTATION_CONTEXT ( 'NONE', 'WORKASPACE' ) );
#38 = ORIENTED_EDGE ( 'NONE', *, *, #17, .F. ) ;
#39 =( LENGTH_UNIT ( ) NAMED_UNIT ( * ) SI_UNIT ( .MILLI., .METRE. ) );
#40 = AXIS2_PLACEMENT_3D ( 'NONE', #161, #302, #207 ) ;
#41 = FILL_AREA_STYLE ('',( #4 ) ) ;
#42 = AXIS2_PLACEMENT_3D ( 'NONE', #330, #133, #15 ) ;
#43 = LINE ( 'NONE', #70, #124 ) ;
#44 = DIRECTION ( 'NONE',  ( 0.0000000000000000000, 0.0000000000000000000, 1.000000000000000000 ) ) ;
#45 = CARTESIAN_POINT ( 'NONE',  ( 3.265166544170545300, 0.0000000000000000000, 0.0000000000000000000 ) ) ;
#46 = EDGE_CURVE ( 'NONE', #156, #16, #185, .T. ) ;
#47 = ORIENTED_EDGE ( 'NONE', *, *, #273, .T. ) ;
#48 = PRODUCT_DEFINITION_CONTEXT ( 'detailed design', #188, 'design' ) ;
#49 = PRESENTATION_STYLE_ASSIGNMENT (( #336 ) ) ;
#50 = VECTOR ( 'NONE', #331, 1000.000000000000000 ) ;
#51 = SPHERICAL_SURFACE ( 'NONE', #193, 2.296000000000014900 ) ;
#52 = APPLICATION_CONTEXT ( 'automotive_design' ) ;
#53 = DIRECTION ( 'NONE',  ( 0.0000000000000000000, 0.0000000000000000000, 1.000000000000000000 ) ) ;
#54 = CARTESIAN_POINT ( 'NONE',  ( 0.0000000000000000000, 0.0000000000000000000, 0.0000000000000000000 ) ) ;
#55 = UNCERTAINTY_MEASURE_WITH_UNIT (LENGTH_MEASURE( 1.000000000000000100E-005 ), #14, 'distance_accuracy_value', 'NONE');
#56 = ORIENTED_EDGE ( 'NONE', *, *, #333, .F. ) ;
#57 = DIRECTION ( 'NONE',  ( 0.0000000000000000000, 0.0000000000000000000, 1.000000000000000000 ) ) ;
#58 = SPHERICAL_SURFACE ( 'NONE', #191, 9.682999999999999800 ) ;
#59 = EDGE_CURVE ( 'NONE', #259, #16, #43, .T. ) ;
#60 = FACE_OUTER_BOUND ( 'NONE', #277, .T. ) ;
#61 = CARTESIAN_POINT ( 'NONE',  ( 0.1779653113488418000, 0.0000000000000000000, -1.016439536705160400E-017 ) ) ;
#62 = DIRECTION ( 'NONE',  ( 0.0000000000000000000, 0.0000000000000000000, 1.000000000000000000 ) ) ;
#63 = ORIENTED_EDGE ( 'NONE', *, *, #245, .F. ) ;
#64 = DIRECTION ( 'NONE',  ( -1.000000000000000000, -0.0000000000000000000, -0.0000000000000000000 ) ) ;
#65 = PRODUCT ( '145001', '145001', '', ( #27 ) ) ;
#66 = DIRECTION ( 'NONE',  ( -1.000000000000000000, -0.0000000000000000000, -0.0000000000000000000 ) ) ;
#67 = CARTESIAN_POINT ( 'NONE',  ( -0.8160621761658039000, 0.0000000000000000000, 0.0000000000000000000 ) ) ;
#68 = ORIENTED_EDGE ( 'NONE', *, *, #218, .F. ) ;
#69 = FACE_OUTER_BOUND ( 'NONE', #95, .T. ) ;
#70 = CARTESIAN_POINT ( 'NONE',  ( -0.5519199926577972300, 0.0000000000000000000, 2.000000000000000000 ) ) ;
#71 = EDGE_LOOP ( 'NONE', ( #56, #234, #148 ) ) ;
#72 = EDGE_CURVE ( 'NONE', #232, #206, #247, .T. ) ;
#73 = CARTESIAN_POINT ( 'NONE',  ( 3.405965311348841500, 0.0000000000000000000, -5.081146169592312400E-018 ) ) ;
#74 = AXIS2_PLACEMENT_3D ( 'NONE', #54, #281, #288 ) ;
#75 = EDGE_LOOP ( 'NONE', ( #314, #212, #47 ) ) ;
#76 = DIRECTION ( 'NONE',  ( -1.000000000000000000, -0.0000000000000000000, -0.0000000000000000000 ) ) ;
#77 = LINE ( 'NONE', #164, #50 ) ;
#78 = EDGE_CURVE ( 'NONE', #134, #259, #258, .T. ) ;
#79 = ORIENTED_EDGE ( 'NONE', *, *, #72, .T. ) ;
#80 = SURFACE_SIDE_STYLE ('',( #337 ) ) ;
#81 = CARTESIAN_POINT ( 'NONE',  ( 3.265166544170545300, 0.0000000000000000000, 2.000000000000000000 ) ) ;
#82 = EDGE_LOOP ( 'NONE', ( #5, #145, #92 ) ) ;
#83 = ORIENTED_EDGE ( 'NONE', *, *, #59, .T. ) ;
#84 =( NAMED_UNIT ( * ) PLANE_ANGLE_UNIT ( ) SI_UNIT ( $, .RADIAN. ) );
#85 = FACE_OUTER_BOUND ( 'NONE', #82, .T. ) ;
#86 =( LENGTH_UNIT ( ) NAMED_UNIT ( * ) SI_UNIT ( .MILLI., .METRE. ) );
#87 = AXIS2_PLACEMENT_3D ( 'NONE', #179, #64, #169 ) ;
#88 = CLOSED_SHELL ( 'NONE', ( #230, #12, #252, #182, #1, #275 ) ) ;
#89 = SPHERICAL_SURFACE ( 'NONE', #9, 3.532000000000000000 ) ;
#90 = DIRECTION ( 'NONE',  ( 0.0000000000000000000, -1.000000000000000000, 0.0000000000000000000 ) ) ;
#91 = DIRECTION ( 'NONE',  ( 0.0000000000000000000, 0.0000000000000000000, 1.000000000000000000 ) ) ;
#92 = ORIENTED_EDGE ( 'NONE', *, *, #78, .F. ) ;
#93 = DIRECTION ( 'NONE',  ( 0.0000000000000000000, 1.000000000000000000, 0.0000000000000000000 ) ) ;
#94 = ORIENTED_EDGE ( 'NONE', *, *, #59, .F. ) ;
#95 = EDGE_LOOP ( 'NONE', ( #38, #107, #68 ) ) ;
#96 = PRODUCT_RELATED_PRODUCT_CATEGORY ( 'part', '', ( #65 ) ) ;
#97 = UNCERTAINTY_MEASURE_WITH_UNIT (LENGTH_MEASURE( 1.000000000000000100E-005 ), #86, 'distance_accuracy_value', 'NONE');
#98 = AXIS2_PLACEMENT_3D ( 'NONE', #7, #93, #312 ) ;
#99 = CARTESIAN_POINT ( 'NONE',  ( 1.305624834431971000, 0.0000000000000000000, 2.000000000000000000 ) ) ;
#100 = AXIS2_PLACEMENT_3D ( 'NONE', #292, #126, #102 ) ;
#101 = SURFACE_SIDE_STYLE ('',( #256 ) ) ;
#102 = DIRECTION ( 'NONE',  ( 0.0000000000000000000, -1.224646799147353200E-016, 1.000000000000000000 ) ) ;
#103 = CIRCLE ( 'NONE', #341, 2.296000000000014900 ) ;
#104 = ADVANCED_FACE ( 'NONE', ( #60 ), #140, .T. ) ;
#105 = CIRCLE ( 'NONE', #166, 9.682999999999999800 ) ;
#106 = DIRECTION ( 'NONE',  ( 0.0000000000000000000, 1.000000000000000000, 0.0000000000000000000 ) ) ;
#107 = ORIENTED_EDGE ( 'NONE', *, *, #150, .T. ) ;
#108 = DIRECTION ( 'NONE',  ( 0.0000000000000000000, -1.000000000000000000, 0.0000000000000000000 ) ) ;
#109 = ADVANCED_FACE ( 'NONE', ( #24 ), #221, .T. ) ;
#110 = SPHERICAL_SURFACE ( 'NONE', #42, 9.682999999999999800 ) ;
#111 = SHAPE_DEFINITION_REPRESENTATION ( #199, #30 ) ;
#112 =( NAMED_UNIT ( * ) SI_UNIT ( $, .STERADIAN. ) SOLID_ANGLE_UNIT ( ) );
#113 = VECTOR ( 'NONE', #201, 1000.000000000000000 ) ;
#114 = EDGE_LOOP ( 'NONE', ( #26, #157, #217 ) ) ;
#115 = DIRECTION ( 'NONE',  ( 0.0000000000000000000, 0.0000000000000000000, 1.000000000000000000 ) ) ;
#116 = CARTESIAN_POINT ( 'NONE',  ( 3.405965311348841500, 0.0000000000000000000, -5.081146169592312400E-018 ) ) ;
#117 = PRESENTATION_LAYER_ASSIGNMENT (  '', '', ( #181 ) ) ;
#118 = PRODUCT_DEFINITION ( 'Î´Öª', '', #137, #48 ) ;
#119 = DIRECTION ( 'NONE',  ( 0.0000000000000000000, -1.000000000000000000, 0.0000000000000000000 ) ) ;
#120 = ADVANCED_FACE ( 'NONE', ( #69 ), #265, .T. ) ;
#121 = COLOUR_RGB ( '',1.000000000000000000, 1.000000000000000000, 1.000000000000000000 ) ;
#122 = AXIS2_PLACEMENT_3D ( 'NONE', #226, #127, #294 ) ;
#123 = CARTESIAN_POINT ( 'NONE',  ( 0.4947758637175129200, 0.0000000000000000000, 0.0000000000000000000 ) ) ;
#124 = VECTOR ( 'NONE', #66, 1000.000000000000000 ) ;
#125 = EDGE_CURVE ( 'NONE', #3, #211, #132, .T. ) ;
#126 = DIRECTION ( 'NONE',  ( -0.0000000000000000000, 1.000000000000000000, 1.224646799147353200E-016 ) ) ;
#127 = DIRECTION ( 'NONE',  ( -1.000000000000000000, -0.0000000000000000000, -0.0000000000000000000 ) ) ;
#128 = UNCERTAINTY_MEASURE_WITH_UNIT (LENGTH_MEASURE( 1.000000000000000100E-005 ), #175, 'distance_accuracy_value', 'NONE');
#129 = AXIS2_PLACEMENT_3D ( 'NONE', #324, #295, #270 ) ;
#130 = CARTESIAN_POINT ( 'NONE',  ( 3.473965311348857100, 0.0000000000000000000, 5.929127478071911200E-016 ) ) ;
#131 = DIRECTION ( 'NONE',  ( -0.0000000000000000000, 1.000000000000000000, 1.224646799147353200E-016 ) ) ;
#132 = LINE ( 'NONE', #216, #13 ) ;
#133 = DIRECTION ( 'NONE',  ( 0.0000000000000000000, 1.000000000000000000, 0.0000000000000000000 ) ) ;
#134 = VERTEX_POINT ( 'NONE', #241 ) ;
#135 = CARTESIAN_POINT ( 'NONE',  ( 2.473965311348856700, 0.0000000000000000000, 1.304250571750654700E-016 ) ) ;
#136 = AXIS2_PLACEMENT_3D ( 'NONE', #204, #168, #195 ) ;
#137 = PRODUCT_DEFINITION_FORMATION_WITH_SPECIFIED_SOURCE ( 'ÈÎºÎ', '', #65, .NOT_KNOWN. ) ;
#138 = ADVANCED_FACE ( 'NONE', ( #198 ), #89, .T. ) ;
#139 = EDGE_CURVE ( 'NONE', #233, #156, #338, .T. ) ;
#140 = SPHERICAL_SURFACE ( 'NONE', #98, 2.296000000000014900 ) ;
#141 = ORIENTED_EDGE ( 'NONE', *, *, #46, .F. ) ;
#142 = CARTESIAN_POINT ( 'NONE',  ( 1.305624834431970300, 2.449293598294706900E-016, -2.000000000000000000 ) ) ;
#143 = DIRECTION ( 'NONE',  ( -0.0000000000000000000, 1.000000000000000000, 1.224646799147353200E-016 ) ) ;
#144 = CIRCLE ( 'NONE', #6, 3.532000000000000000 ) ;
#145 = ORIENTED_EDGE ( 'NONE', *, *, #257, .T. ) ;
#146 = COLOUR_RGB ( '',1.000000000000000000, 1.000000000000000000, 1.000000000000000000 ) ;
#147 = CIRCLE ( 'NONE', #262, 2.296000000000014900 ) ;
#148 = ORIENTED_EDGE ( 'NONE', *, *, #46, .T. ) ;
#149 = CARTESIAN_POINT ( 'NONE',  ( -0.5519199926577972300, 0.0000000000000000000, 0.0000000000000000000 ) ) ;
#150 = EDGE_CURVE ( 'NONE', #167, #3, #147, .T. ) ;
#151 = EDGE_LOOP ( 'NONE', ( #296, #290, #83, #141 ) ) ;
#152 = ORIENTED_EDGE ( 'NONE', *, *, #251, .F. ) ;
#153 = ORIENTED_EDGE ( 'NONE', *, *, #125, .F. ) ;
#154 = CARTESIAN_POINT ( 'NONE',  ( 1.305624834431970300, 0.0000000000000000000, 2.000000000000000000 ) ) ;
#155 = FILL_AREA_STYLE_COLOUR ( '', #205 ) ;
#156 = VERTEX_POINT ( 'NONE', #142 ) ;
#157 = ORIENTED_EDGE ( 'NONE', *, *, #29, .T. ) ;
#158 = AXIS2_PLACEMENT_3D ( 'NONE', #222, #318, #91 ) ;
#159 = DIRECTION ( 'NONE',  ( -1.000000000000000000, -0.0000000000000000000, -0.0000000000000000000 ) ) ;
#160 = AXIS2_PLACEMENT_3D ( 'NONE', #347, #196, #28 ) ;
#161 = CARTESIAN_POINT ( 'NONE',  ( 1.305624834431971000, 0.0000000000000000000, 0.0000000000000000000 ) ) ;
#162 = ORIENTED_EDGE ( 'NONE', *, *, #150, .F. ) ;
#163 = ORIENTED_EDGE ( 'NONE', *, *, #251, .T. ) ;
#164 = CARTESIAN_POINT ( 'NONE',  ( -0.5519199926577972300, 2.449293598294706400E-016, -2.000000000000000000 ) ) ;
#165 = DIRECTION ( 'NONE',  ( 0.0000000000000000000, 0.0000000000000000000, 1.000000000000000000 ) ) ;
#166 = AXIS2_PLACEMENT_3D ( 'NONE', #278, #131, #228 ) ;
#167 = VERTEX_POINT ( 'NONE', #261 ) ;
#168 = DIRECTION ( 'NONE',  ( 0.0000000000000000000, 1.000000000000000000, 0.0000000000000000000 ) ) ;
#169 = DIRECTION ( 'NONE',  ( 0.0000000000000000000, 0.0000000000000000000, 1.000000000000000000 ) ) ;
#170 = EDGE_LOOP ( 'NONE', ( #19, #8, #320, #153 ) ) ;
#171 = CARTESIAN_POINT ( 'NONE',  ( 3.405965311348841500, 0.0000000000000000000, -5.081146169592312400E-018 ) ) ;
#172 = FILL_AREA_STYLE_COLOUR ( '', #146 ) ;
#173 = SURFACE_STYLE_USAGE ( .BOTH. , #80 ) ;
#174 = VERTEX_POINT ( 'NONE', #244 ) ;
#175 =( LENGTH_UNIT ( ) NAMED_UNIT ( * ) SI_UNIT ( .MILLI., .METRE. ) );
#176 = MECHANICAL_DESIGN_GEOMETRIC_PRESENTATION_REPRESENTATION (  '', ( #223 ), #268 ) ;
#177 = CARTESIAN_POINT ( 'NONE',  ( -0.1260346886511583600, 0.0000000000000000000, 2.111914785598302500E-016 ) ) ;
#178 = FACE_OUTER_BOUND ( 'NONE', #151, .T. ) ;
#179 = CARTESIAN_POINT ( 'NONE',  ( -0.8160621761658039000, 0.0000000000000000000, 0.0000000000000000000 ) ) ;
#180 = DIRECTION ( 'NONE',  ( -1.000000000000000000, -0.0000000000000000000, -0.0000000000000000000 ) ) ;
#181 = STYLED_ITEM ( 'NONE', ( #192 ), #187 ) ;
#182 = ADVANCED_FACE ( 'NONE', ( #310 ), #51, .F. ) ;
#183 = FACE_OUTER_BOUND ( 'NONE', #71, .T. ) ;
#184 =( NAMED_UNIT ( * ) PLANE_ANGLE_UNIT ( ) SI_UNIT ( $, .RADIAN. ) );
#185 = CIRCLE ( 'NONE', #20, 2.000000000000000000 ) ;
#186 = CLOSED_SHELL ( 'NONE', ( #104, #317, #138, #190, #109, #120 ) ) ;
#187 = MANIFOLD_SOLID_BREP ( 'Ðý×ª1', #186 ) ;
#188 = APPLICATION_CONTEXT ( 'automotive_design' ) ;
#189 = CARTESIAN_POINT ( 'NONE',  ( 1.305624834431970300, 0.0000000000000000000, 0.0000000000000000000 ) ) ;
#190 = ADVANCED_FACE ( 'NONE', ( #231 ), #319, .T. ) ;
#191 = AXIS2_PLACEMENT_3D ( 'NONE', #303, #264, #57 ) ;
#192 = PRESENTATION_STYLE_ASSIGNMENT (( #173 ) ) ;
#193 = AXIS2_PLACEMENT_3D ( 'NONE', #325, #215, #53 ) ;
#194 = CARTESIAN_POINT ( 'NONE',  ( 0.1779653113488418000, 0.0000000000000000000, -1.016439536705160400E-017 ) ) ;
#195 = DIRECTION ( 'NONE',  ( 0.0000000000000000000, 0.0000000000000000000, 1.000000000000000000 ) ) ;
#196 = DIRECTION ( 'NONE',  ( -1.000000000000000000, -0.0000000000000000000, -0.0000000000000000000 ) ) ;
#197 = DIRECTION ( 'NONE',  ( 0.0000000000000000000, 0.0000000000000000000, 1.000000000000000000 ) ) ;
#198 = FACE_OUTER_BOUND ( 'NONE', #276, .T. ) ;
#199 = PRODUCT_DEFINITION_SHAPE ( 'NONE', 'NONE',  #118 ) ;
#200 = SURFACE_STYLE_FILL_AREA ( #334 ) ;
#201 = DIRECTION ( 'NONE',  ( -1.000000000000000000, -0.0000000000000000000, -0.0000000000000000000 ) ) ;
#202 = CYLINDRICAL_SURFACE ( 'NONE', #269, 2.000000000000000000 ) ;
#203 = DIRECTION ( 'NONE',  ( -1.000000000000000000, -0.0000000000000000000, -0.0000000000000000000 ) ) ;
#204 = CARTESIAN_POINT ( 'NONE',  ( 0.1779653113488418000, 0.0000000000000000000, -1.016439536705160400E-017 ) ) ;
#205 = COLOUR_RGB ( '',1.000000000000000000, 1.000000000000000000, 1.000000000000000000 ) ;
#206 = VERTEX_POINT ( 'NONE', #177 ) ;
#207 = DIRECTION ( 'NONE',  ( 0.0000000000000000000, 0.0000000000000000000, 1.000000000000000000 ) ) ;
#208 = LINE ( 'NONE', #280, #113 ) ;
#209 = SURFACE_STYLE_USAGE ( .BOTH. , #18 ) ;
#210 = CIRCLE ( 'NONE', #158, 2.000000000000000000 ) ;
#211 = VERTEX_POINT ( 'NONE', #236 ) ;
#212 = ORIENTED_EDGE ( 'NONE', *, *, #333, .T. ) ;
#213 =( NAMED_UNIT ( * ) SI_UNIT ( $, .STERADIAN. ) SOLID_ANGLE_UNIT ( ) );
#214 = APPLICATION_PROTOCOL_DEFINITION ( 'draft international standard', 'automotive_design', 1998, #188 ) ;
#215 = DIRECTION ( 'NONE',  ( 0.0000000000000000000, 1.000000000000000000, 0.0000000000000000000 ) ) ;
#216 = CARTESIAN_POINT ( 'NONE',  ( -0.8160621761658039000, 0.0000000000000000000, 2.000000000000000000 ) ) ;
#217 = ORIENTED_EDGE ( 'NONE', *, *, #297, .F. ) ;
#218 = EDGE_CURVE ( 'NONE', #174, #3, #229, .T. ) ;
#219 = DIRECTION ( 'NONE',  ( 0.0000000000000000000, 0.0000000000000000000, 1.000000000000000000 ) ) ;
#220 = SPHERICAL_SURFACE ( 'NONE', #284, 2.296000000000014900 ) ;
#221 = CYLINDRICAL_SURFACE ( 'NONE', #87, 2.000000000000000000 ) ;
#222 = CARTESIAN_POINT ( 'NONE',  ( 1.305624834431971000, 0.0000000000000000000, 0.0000000000000000000 ) ) ;
#223 = STYLED_ITEM ( 'NONE', ( #326 ), #316 ) ;
#224 = MECHANICAL_DESIGN_GEOMETRIC_PRESENTATION_REPRESENTATION (  '', ( #181 ), #266 ) ;
#225 = ORIENTED_EDGE ( 'NONE', *, *, #17, .T. ) ;
#226 = CARTESIAN_POINT ( 'NONE',  ( 3.265166544170545300, 0.0000000000000000000, 0.0000000000000000000 ) ) ;
#227 = DIRECTION ( 'NONE',  ( 0.0000000000000000000, 0.0000000000000000000, 1.000000000000000000 ) ) ;
#228 = DIRECTION ( 'NONE',  ( 0.0000000000000000000, -1.224646799147353500E-016, 1.000000000000000000 ) ) ;
#229 = CIRCLE ( 'NONE', #40, 2.000000000000000000 ) ;
#230 = ADVANCED_FACE ( 'NONE', ( #315 ), #110, .T. ) ;
#231 = FACE_OUTER_BOUND ( 'NONE', #31, .T. ) ;
#232 = VERTEX_POINT ( 'NONE', #25 ) ;
#233 = VERTEX_POINT ( 'NONE', #135 ) ;
#234 = ORIENTED_EDGE ( 'NONE', *, *, #139, .T. ) ;
#235 = ORIENTED_EDGE ( 'NONE', *, *, #254, .T. ) ;
#236 = CARTESIAN_POINT ( 'NONE',  ( 0.4947758637175130300, 0.0000000000000000000, 2.000000000000000000 ) ) ;
#237 = EDGE_CURVE ( 'NONE', #174, #232, #208, .T. ) ;
#238 = CARTESIAN_POINT ( 'NONE',  ( -6.209034688651143200, 0.0000000000000000000, 0.0000000000000000000 ) ) ;
#239 =( NAMED_UNIT ( * ) PLANE_ANGLE_UNIT ( ) SI_UNIT ( $, .RADIAN. ) );
#240 = PRESENTATION_LAYER_ASSIGNMENT (  '', '', ( #223 ) ) ;
#241 = CARTESIAN_POINT ( 'NONE',  ( 3.265166544170545300, 2.449293598294706400E-016, -2.000000000000000000 ) ) ;
#242 = FACE_OUTER_BOUND ( 'NONE', #339, .T. ) ;
#243 = DIRECTION ( 'NONE',  ( 0.0000000000000000000, 0.0000000000000000000, -1.000000000000000000 ) ) ;
#244 = CARTESIAN_POINT ( 'NONE',  ( 1.305624834431971000, 2.449293598294706400E-016, -2.000000000000000000 ) ) ;
#245 = EDGE_CURVE ( 'NONE', #211, #206, #144, .T. ) ;
#246 = VERTEX_POINT ( 'NONE', #130 ) ;
#247 = CIRCLE ( 'NONE', #306, 3.532000000000000000 ) ;
#248 = ORIENTED_EDGE ( 'NONE', *, *, #273, .F. ) ;
#249 = DIRECTION ( 'NONE',  ( 0.0000000000000000000, -1.224646799147353200E-016, 1.000000000000000000 ) ) ;
#250 = CARTESIAN_POINT ( 'NONE',  ( 3.405965311348841500, 0.0000000000000000000, -5.081146169592312400E-018 ) ) ;
#251 = EDGE_CURVE ( 'NONE', #232, #211, #283, .T. ) ;
#252 = ADVANCED_FACE ( 'NONE', ( #183 ), #220, .F. ) ;
#253 =( GEOMETRIC_REPRESENTATION_CONTEXT ( 3 ) GLOBAL_UNCERTAINTY_ASSIGNED_CONTEXT ( ( #128 ) ) GLOBAL_UNIT_ASSIGNED_CONTEXT ( ( #175, #22, #300 ) ) REPRESENTATION_CONTEXT ( 'NONE', 'WORKASPACE' ) );
#254 = EDGE_CURVE ( 'NONE', #134, #156, #77, .T. ) ;
#255 = DIRECTION ( 'NONE',  ( 0.0000000000000000000, 0.0000000000000000000, -1.000000000000000000 ) ) ;
#256 = SURFACE_STYLE_FILL_AREA ( #41 ) ;
#257 = EDGE_CURVE ( 'NONE', #246, #259, #335, .T. ) ;
#258 = CIRCLE ( 'NONE', #122, 2.000000000000000000 ) ;
#259 = VERTEX_POINT ( 'NONE', #81 ) ;
#260 = DIRECTION ( 'NONE',  ( 0.0000000000000000000, 0.0000000000000000000, -1.000000000000000000 ) ) ;
#261 = CARTESIAN_POINT ( 'NONE',  ( 2.473965311348856700, 0.0000000000000000000, 1.304250571750654700E-016 ) ) ;
#262 = AXIS2_PLACEMENT_3D ( 'NONE', #194, #342, #260 ) ;
#263 = ORIENTED_EDGE ( 'NONE', *, *, #245, .T. ) ;
#264 = DIRECTION ( 'NONE',  ( 0.0000000000000000000, 1.000000000000000000, 0.0000000000000000000 ) ) ;
#265 = SPHERICAL_SURFACE ( 'NONE', #136, 2.296000000000014900 ) ;
#266 =( GEOMETRIC_REPRESENTATION_CONTEXT ( 3 ) GLOBAL_UNCERTAINTY_ASSIGNED_CONTEXT ( ( #332 ) ) GLOBAL_UNIT_ASSIGNED_CONTEXT ( ( #39, #184, #213 ) ) REPRESENTATION_CONTEXT ( 'NONE', 'WORKASPACE' ) );
#267 = ORIENTED_EDGE ( 'NONE', *, *, #237, .F. ) ;
#268 =( GEOMETRIC_REPRESENTATION_CONTEXT ( 3 ) GLOBAL_UNCERTAINTY_ASSIGNED_CONTEXT ( ( #55 ) ) GLOBAL_UNIT_ASSIGNED_CONTEXT ( ( #14, #239, #279 ) ) REPRESENTATION_CONTEXT ( 'NONE', 'WORKASPACE' ) );
#269 = AXIS2_PLACEMENT_3D ( 'NONE', #67, #159, #32 ) ;
#270 = DIRECTION ( 'NONE',  ( 0.0000000000000000000, 0.0000000000000000000, 1.000000000000000000 ) ) ;
#271 = ORIENTED_EDGE ( 'NONE', *, *, #297, .T. ) ;
#272 = DIRECTION ( 'NONE',  ( -0.0000000000000000000, 1.000000000000000000, 1.224646799147353200E-016 ) ) ;
#273 = EDGE_CURVE ( 'NONE', #16, #156, #10, .T. ) ;
#274 = AXIS2_PLACEMENT_3D ( 'NONE', #45, #76, #165 ) ;
#275 = ADVANCED_FACE ( 'NONE', ( #85 ), #58, .T. ) ;
#276 = EDGE_LOOP ( 'NONE', ( #289, #79, #63 ) ) ;
#277 = EDGE_LOOP ( 'NONE', ( #162, #225, #305 ) ) ;
#278 = CARTESIAN_POINT ( 'NONE',  ( -6.209034688651143200, 0.0000000000000000000, 0.0000000000000000000 ) ) ;
#279 =( NAMED_UNIT ( * ) SI_UNIT ( $, .STERADIAN. ) SOLID_ANGLE_UNIT ( ) );
#280 = CARTESIAN_POINT ( 'NONE',  ( -0.8160621761658039000, 2.449293598294706400E-016, -2.000000000000000000 ) ) ;
#281 = DIRECTION ( 'NONE',  ( 0.0000000000000000000, 0.0000000000000000000, 1.000000000000000000 ) ) ;
#282 = EDGE_CURVE ( 'NONE', #3, #174, #210, .T. ) ;
#283 = CIRCLE ( 'NONE', #160, 2.000000000000000000 ) ;
#284 = AXIS2_PLACEMENT_3D ( 'NONE', #61, #106, #219 ) ;
#285 = ORIENTED_EDGE ( 'NONE', *, *, #72, .F. ) ;
#286 = PRESENTATION_LAYER_ASSIGNMENT (  '', '', ( #322 ) ) ;
#287 = CARTESIAN_POINT ( 'NONE',  ( 0.1779653113488418000, 0.0000000000000000000, -1.016439536705160400E-017 ) ) ;
#288 = DIRECTION ( 'NONE',  ( 1.000000000000000000, 0.0000000000000000000, 0.0000000000000000000 ) ) ;
#289 = ORIENTED_EDGE ( 'NONE', *, *, #327, .T. ) ;
#290 = ORIENTED_EDGE ( 'NONE', *, *, #78, .T. ) ;
#291 = CARTESIAN_POINT ( 'NONE',  ( 0.1779653113488418000, 0.0000000000000000000, -1.016439536705160400E-017 ) ) ;
#292 = CARTESIAN_POINT ( 'NONE',  ( 0.1779653113488418000, 0.0000000000000000000, -1.016439536705160400E-017 ) ) ;
#293 = CIRCLE ( 'NONE', #100, 2.296000000000014900 ) ;
#294 = DIRECTION ( 'NONE',  ( 0.0000000000000000000, 0.0000000000000000000, 1.000000000000000000 ) ) ;
#295 = DIRECTION ( 'NONE',  ( -1.000000000000000000, -0.0000000000000000000, -0.0000000000000000000 ) ) ;
#296 = ORIENTED_EDGE ( 'NONE', *, *, #254, .F. ) ;
#297 = EDGE_CURVE ( 'NONE', #259, #134, #307, .T. ) ;
#298 = CIRCLE ( 'NONE', #321, 2.000000000000000000 ) ;
#299 = CYLINDRICAL_SURFACE ( 'NONE', #129, 2.000000000000000000 ) ;
#300 =( NAMED_UNIT ( * ) SI_UNIT ( $, .STERADIAN. ) SOLID_ANGLE_UNIT ( ) );
#301 = AXIS2_PLACEMENT_3D ( 'NONE', #238, #108, #255 ) ;
#302 = DIRECTION ( 'NONE',  ( -1.000000000000000000, -0.0000000000000000000, -0.0000000000000000000 ) ) ;
#303 = CARTESIAN_POINT ( 'NONE',  ( -6.209034688651143200, 0.0000000000000000000, 0.0000000000000000000 ) ) ;
#304 = DIRECTION ( 'NONE',  ( -1.000000000000000000, -0.0000000000000000000, -0.0000000000000000000 ) ) ;
#305 = ORIENTED_EDGE ( 'NONE', *, *, #282, .F. ) ;
#306 = AXIS2_PLACEMENT_3D ( 'NONE', #250, #272, #249 ) ;
#307 = CIRCLE ( 'NONE', #274, 2.000000000000000000 ) ;
#308 = FACE_OUTER_BOUND ( 'NONE', #170, .T. ) ;
#309 = AXIS2_PLACEMENT_3D ( 'NONE', #73, #329, #44 ) ;
#310 = FACE_OUTER_BOUND ( 'NONE', #75, .T. ) ;
#311 = DIRECTION ( 'NONE',  ( 0.0000000000000000000, 1.000000000000000000, 0.0000000000000000000 ) ) ;
#312 = DIRECTION ( 'NONE',  ( 0.0000000000000000000, 0.0000000000000000000, 1.000000000000000000 ) ) ;
#313 = FILL_AREA_STYLE ('',( #155 ) ) ;
#314 = ORIENTED_EDGE ( 'NONE', *, *, #139, .F. ) ;
#315 = FACE_OUTER_BOUND ( 'NONE', #114, .T. ) ;
#316 = MANIFOLD_SOLID_BREP ( 'Ðý×ª3', #88 ) ;
#317 = ADVANCED_FACE ( 'NONE', ( #308 ), #202, .T. ) ;
#318 = DIRECTION ( 'NONE',  ( -1.000000000000000000, -0.0000000000000000000, -0.0000000000000000000 ) ) ;
#319 = SPHERICAL_SURFACE ( 'NONE', #309, 3.532000000000000000 ) ;
#320 = ORIENTED_EDGE ( 'NONE', *, *, #327, .F. ) ;
#321 = AXIS2_PLACEMENT_3D ( 'NONE', #123, #34, #197 ) ;
#322 = STYLED_ITEM ( 'NONE', ( #49 ), #30 ) ;
#323 = EDGE_LOOP ( 'NONE', ( #267, #346, #21, #152 ) ) ;
#324 = CARTESIAN_POINT ( 'NONE',  ( -0.5519199926577972300, 0.0000000000000000000, 0.0000000000000000000 ) ) ;
#325 = CARTESIAN_POINT ( 'NONE',  ( 0.1779653113488418000, 0.0000000000000000000, -1.016439536705160400E-017 ) ) ;
#326 = PRESENTATION_STYLE_ASSIGNMENT (( #209 ) ) ;
#327 = EDGE_CURVE ( 'NONE', #211, #232, #298, .T. ) ;
#328 = DIRECTION ( 'NONE',  ( 0.0000000000000000000, -1.224646799147353200E-016, 1.000000000000000000 ) ) ;
#329 = DIRECTION ( 'NONE',  ( 0.0000000000000000000, 1.000000000000000000, 0.0000000000000000000 ) ) ;
#330 = CARTESIAN_POINT ( 'NONE',  ( -6.209034688651143200, 0.0000000000000000000, 0.0000000000000000000 ) ) ;
#331 = DIRECTION ( 'NONE',  ( -1.000000000000000000, -0.0000000000000000000, -0.0000000000000000000 ) ) ;
#332 = UNCERTAINTY_MEASURE_WITH_UNIT (LENGTH_MEASURE( 1.000000000000000100E-005 ), #39, 'distance_accuracy_value', 'NONE');
#333 = EDGE_CURVE ( 'NONE', #233, #16, #103, .T. ) ;
#334 = FILL_AREA_STYLE ('',( #172 ) ) ;
#335 = CIRCLE ( 'NONE', #301, 9.682999999999999800 ) ;
#336 = SURFACE_STYLE_USAGE ( .BOTH. , #101 ) ;
#337 = SURFACE_STYLE_FILL_AREA ( #313 ) ;
#338 = CIRCLE ( 'NONE', #2, 2.296000000000014900 ) ;
#339 = EDGE_LOOP ( 'NONE', ( #271, #235, #248, #94 ) ) ;
#340 = DIRECTION ( 'NONE',  ( 0.0000000000000000000, 0.0000000000000000000, -1.000000000000000000 ) ) ;
#341 = AXIS2_PLACEMENT_3D ( 'NONE', #291, #90, #340 ) ;
#342 = DIRECTION ( 'NONE',  ( 0.0000000000000000000, -1.000000000000000000, 0.0000000000000000000 ) ) ;
#343 = APPLICATION_PROTOCOL_DEFINITION ( 'draft international standard', 'automotive_design', 1998, #52 ) ;
#344 = MECHANICAL_DESIGN_GEOMETRIC_PRESENTATION_REPRESENTATION (  '', ( #322 ), #37 ) ;
#345 = DIRECTION ( 'NONE',  ( -1.000000000000000000, -0.0000000000000000000, -0.0000000000000000000 ) ) ;
#346 = ORIENTED_EDGE ( 'NONE', *, *, #218, .T. ) ;
#347 = CARTESIAN_POINT ( 'NONE',  ( 0.4947758637175129200, 0.0000000000000000000, 0.0000000000000000000 ) ) ;
ENDSEC;
END-ISO-10303-21;
