ISO-10303-21;
HEADER;
FILE_DESCRIPTION (( 'STEP AP214' ),
    '1' );
FILE_NAME ('145002.STEP',
    '2019-05-08T02:38:48',
    ( 'user' ),
    ( 'Î¢ÈíÖÐ¹ú' ),
    'SwSTEP 2.0',
    'SolidWorks 2016',
    '' );
FILE_SCHEMA (( 'AUTOMOTIVE_DESIGN' ));
ENDSEC;

DATA;
#1 = ADVANCED_FACE ( 'NONE', ( #192 ), #72, .T. ) ;
#2 = AXIS2_PLACEMENT_3D ( 'NONE', #128, #329, #77 ) ;
#3 =( LENGTH_UNIT ( ) NAMED_UNIT ( * ) SI_UNIT ( .MILLI., .METRE. ) );
#4 = ORIENTED_EDGE ( 'NONE', *, *, #245, .T. ) ;
#5 = DIRECTION ( 'NONE',  ( -1.000000000000000000, -0.0000000000000000000, -0.0000000000000000000 ) ) ;
#6 = DIRECTION ( 'NONE',  ( -0.0000000000000000000, -1.000000000000000000, -0.0000000000000000000 ) ) ;
#7 = CARTESIAN_POINT ( 'NONE',  ( -2.186034688651158600, 0.0000000000000000000, 0.0000000000000000000 ) ) ;
#8 = DIRECTION ( 'NONE',  ( 0.0000000000000000000, 0.0000000000000000000, 1.000000000000000000 ) ) ;
#9 = DIRECTION ( 'NONE',  ( -1.000000000000000000, -0.0000000000000000000, -0.0000000000000000000 ) ) ;
#10 = EDGE_LOOP ( 'NONE', ( #67, #206, #88, #18 ) ) ;
#11 = SPHERICAL_SURFACE ( 'NONE', #335, 4.323000000000000400 ) ;
#12 = FACE_OUTER_BOUND ( 'NONE', #154, .T. ) ;
#13 = ORIENTED_EDGE ( 'NONE', *, *, #204, .T. ) ;
#14 = VERTEX_POINT ( 'NONE', #212 ) ;
#15 = STYLED_ITEM ( 'NONE', ( #216 ), #191 ) ;
#16 = DIRECTION ( 'NONE',  ( -1.000000000000000000, -0.0000000000000000000, -0.0000000000000000000 ) ) ;
#17 = ORIENTED_EDGE ( 'NONE', *, *, #253, .T. ) ;
#18 = ORIENTED_EDGE ( 'NONE', *, *, #253, .F. ) ;
#19 = AXIS2_PLACEMENT_3D ( 'NONE', #55, #309, #20 ) ;
#20 = DIRECTION ( 'NONE',  ( 0.0000000000000000000, 0.0000000000000000000, 1.000000000000000000 ) ) ;
#21 =( NAMED_UNIT ( * ) SI_UNIT ( $, .STERADIAN. ) SOLID_ANGLE_UNIT ( ) );
#22 = AXIS2_PLACEMENT_3D ( 'NONE', #60, #219, #87 ) ;
#23 = ORIENTED_EDGE ( 'NONE', *, *, #271, .F. ) ;
#24 =( LENGTH_UNIT ( ) NAMED_UNIT ( * ) SI_UNIT ( .MILLI., .METRE. ) );
#25 = MECHANICAL_DESIGN_GEOMETRIC_PRESENTATION_REPRESENTATION (  '', ( #15 ), #292 ) ;
#26 = ORIENTED_EDGE ( 'NONE', *, *, #305, .T. ) ;
#27 = PRODUCT_DEFINITION_FORMATION_WITH_SPECIFIED_SOURCE ( 'ÈÎºÎ', '', #251, .NOT_KNOWN. ) ;
#28 = ORIENTED_EDGE ( 'NONE', *, *, #48, .T. ) ;
#29 = DIRECTION ( 'NONE',  ( 0.0000000000000000000, 0.0000000000000000000, 1.000000000000000000 ) ) ;
#30 = DIRECTION ( 'NONE',  ( 0.0000000000000000000, 0.0000000000000000000, 1.000000000000000000 ) ) ;
#31 = EDGE_LOOP ( 'NONE', ( #210, #85, #289 ) ) ;
#32 = CARTESIAN_POINT ( 'NONE',  ( 4.965965311348841600, 0.0000000000000000000, 1.002502318057723400E-018 ) ) ;
#33 = DIRECTION ( 'NONE',  ( 0.0000000000000000000, 0.0000000000000000000, -1.000000000000000000 ) ) ;
#34 = EDGE_CURVE ( 'NONE', #334, #234, #323, .T. ) ;
#35 = ORIENTED_EDGE ( 'NONE', *, *, #93, .F. ) ;
#36 = FACE_OUTER_BOUND ( 'NONE', #42, .T. ) ;
#37 = EDGE_CURVE ( 'NONE', #122, #150, #56, .T. ) ;
#38 = DIRECTION ( 'NONE',  ( -0.0000000000000000000, -1.000000000000000000, -0.0000000000000000000 ) ) ;
#39 = PRODUCT_DEFINITION_SHAPE ( 'NONE', 'NONE',  #103 ) ;
#40 = AXIS2_PLACEMENT_3D ( 'NONE', #314, #237, #139 ) ;
#41 = VECTOR ( 'NONE', #9, 1000.000000000000000 ) ;
#42 = EDGE_LOOP ( 'NONE', ( #138, #133, #17, #176 ) ) ;
#43 = FACE_OUTER_BOUND ( 'NONE', #187, .T. ) ;
#44 =( GEOMETRIC_REPRESENTATION_CONTEXT ( 3 ) GLOBAL_UNCERTAINTY_ASSIGNED_CONTEXT ( ( #174 ) ) GLOBAL_UNIT_ASSIGNED_CONTEXT ( ( #3, #198, #172 ) ) REPRESENTATION_CONTEXT ( 'NONE', 'WORKASPACE' ) );
#45 = FILL_AREA_STYLE_COLOUR ( '', #135 ) ;
#46 = DIRECTION ( 'NONE',  ( -1.000000000000000000, -0.0000000000000000000, -0.0000000000000000000 ) ) ;
#47 = DIRECTION ( 'NONE',  ( 0.0000000000000000000, 0.0000000000000000000, 1.000000000000000000 ) ) ;
#48 = EDGE_CURVE ( 'NONE', #331, #332, #327, .T. ) ;
#49 = EDGE_LOOP ( 'NONE', ( #35, #95, #215 ) ) ;
#50 = EDGE_CURVE ( 'NONE', #71, #320, #255, .T. ) ;
#51 = DIRECTION ( 'NONE',  ( 0.0000000000000000000, 1.000000000000000000, 0.0000000000000000000 ) ) ;
#52 = DIRECTION ( 'NONE',  ( 0.0000000000000000000, 1.000000000000000000, 0.0000000000000000000 ) ) ;
#53 = CARTESIAN_POINT ( 'NONE',  ( 2.842965311348840900, 0.0000000000000000000, 1.530197906193331800E-016 ) ) ;
#54 = ORIENTED_EDGE ( 'NONE', *, *, #50, .T. ) ;
#55 = CARTESIAN_POINT ( 'NONE',  ( 0.1779653113488418000, 0.0000000000000000000, -1.016439536705160400E-017 ) ) ;
#56 = CIRCLE ( 'NONE', #22, 2.664999999999999100 ) ;
#57 = AXIS2_PLACEMENT_3D ( 'NONE', #165, #141, #145 ) ;
#58 = ORIENTED_EDGE ( 'NONE', *, *, #48, .F. ) ;
#59 = CIRCLE ( 'NONE', #132, 2.664999999999999100 ) ;
#60 = CARTESIAN_POINT ( 'NONE',  ( 0.1779653113488418000, 0.0000000000000000000, -1.016439536705160400E-017 ) ) ;
#61 = AXIS2_PLACEMENT_3D ( 'NONE', #190, #290, #239 ) ;
#62 = SPHERICAL_SURFACE ( 'NONE', #243, 6.418999999999999600 ) ;
#63 = ORIENTED_EDGE ( 'NONE', *, *, #189, .F. ) ;
#64 = DIRECTION ( 'NONE',  ( 0.0000000000000000000, 1.224646799147353200E-016, -1.000000000000000000 ) ) ;
#65 = CARTESIAN_POINT ( 'NONE',  ( -0.5519199926577972300, 0.0000000000000000000, 1.999999999999999100 ) ) ;
#66 = SPHERICAL_SURFACE ( 'NONE', #259, 2.664999999999999100 ) ;
#67 = ORIENTED_EDGE ( 'NONE', *, *, #153, .T. ) ;
#68 = ADVANCED_FACE ( 'NONE', ( #200 ), #126, .T. ) ;
#69 = MECHANICAL_DESIGN_GEOMETRIC_PRESENTATION_REPRESENTATION (  '', ( #281 ), #266 ) ;
#70 = ORIENTED_EDGE ( 'NONE', *, *, #97, .T. ) ;
#71 = VERTEX_POINT ( 'NONE', #179 ) ;
#72 = SPHERICAL_SURFACE ( 'NONE', #19, 2.664999999999999600 ) ;
#73 = CARTESIAN_POINT ( 'NONE',  ( 0.1779653113488418000, 0.0000000000000000000, -1.016439536705160400E-017 ) ) ;
#74 = EDGE_CURVE ( 'NONE', #334, #302, #119, .T. ) ;
#75 = COLOUR_RGB ( '',1.000000000000000000, 1.000000000000000000, 1.000000000000000000 ) ;
#76 = CARTESIAN_POINT ( 'NONE',  ( -2.186034688651158600, 0.0000000000000000000, 0.0000000000000000000 ) ) ;
#77 = DIRECTION ( 'NONE',  ( 0.0000000000000000000, 0.0000000000000000000, 1.000000000000000000 ) ) ;
#78 = AXIS2_PLACEMENT_3D ( 'NONE', #197, #207, #107 ) ;
#79 = SURFACE_STYLE_FILL_AREA ( #235 ) ;
#80 = EDGE_LOOP ( 'NONE', ( #180, #4, #100, #89 ) ) ;
#81 = CIRCLE ( 'NONE', #227, 2.000000000000000000 ) ;
#82 = CARTESIAN_POINT ( 'NONE',  ( 1.939278741718347700, 0.0000000000000000000, 1.999999999999999600 ) ) ;
#83 = CARTESIAN_POINT ( 'NONE',  ( 1.133429727691463100, 0.0000000000000000000, 0.0000000000000000000 ) ) ;
#84 = DIRECTION ( 'NONE',  ( -1.000000000000000000, -0.0000000000000000000, -0.0000000000000000000 ) ) ;
#85 = ORIENTED_EDGE ( 'NONE', *, *, #240, .T. ) ;
#86 = SURFACE_STYLE_FILL_AREA ( #169 ) ;
#87 = DIRECTION ( 'NONE',  ( 0.0000000000000000000, 0.0000000000000000000, -1.000000000000000000 ) ) ;
#88 = ORIENTED_EDGE ( 'NONE', *, *, #240, .F. ) ;
#89 = ORIENTED_EDGE ( 'NONE', *, *, #204, .F. ) ;
#90 = DIRECTION ( 'NONE',  ( 0.0000000000000000000, -1.000000000000000000, -1.224646799147353200E-016 ) ) ;
#91 = CARTESIAN_POINT ( 'NONE',  ( 1.939278741718347700, 0.0000000000000000000, 0.0000000000000000000 ) ) ;
#92 = ADVANCED_FACE ( 'NONE', ( #272 ), #66, .F. ) ;
#93 = EDGE_CURVE ( 'NONE', #122, #143, #59, .T. ) ;
#94 = ADVANCED_FACE ( 'NONE', ( #333 ), #149, .T. ) ;
#95 = ORIENTED_EDGE ( 'NONE', *, *, #37, .T. ) ;
#96 = LINE ( 'NONE', #65, #41 ) ;
#97 = EDGE_CURVE ( 'NONE', #331, #14, #346, .T. ) ;
#98 = VECTOR ( 'NONE', #134, 1000.000000000000000 ) ;
#99 = CARTESIAN_POINT ( 'NONE',  ( -2.186034688651158600, 0.0000000000000000000, 0.0000000000000000000 ) ) ;
#100 = ORIENTED_EDGE ( 'NONE', *, *, #267, .T. ) ;
#101 = DIRECTION ( 'NONE',  ( 0.0000000000000000000, 0.0000000000000000000, -1.000000000000000000 ) ) ;
#102 = PRESENTATION_STYLE_ASSIGNMENT (( #278 ) ) ;
#103 = PRODUCT_DEFINITION ( 'Î´Öª', '', #27, #270 ) ;
#104 = CLOSED_SHELL ( 'NONE', ( #94, #328, #199, #111, #318, #1 ) ) ;
#105 = CIRCLE ( 'NONE', #168, 1.999999999999998200 ) ;
#106 = FILL_AREA_STYLE_COLOUR ( '', #142 ) ;
#107 = DIRECTION ( 'NONE',  ( 0.0000000000000000000, 0.0000000000000000000, 1.000000000000000000 ) ) ;
#108 = AXIS2_PLACEMENT_3D ( 'NONE', #73, #287, #343 ) ;
#109 = LINE ( 'NONE', #250, #316 ) ;
#110 = SPHERICAL_SURFACE ( 'NONE', #261, 2.664999999999999100 ) ;
#111 = ADVANCED_FACE ( 'NONE', ( #282 ), #205, .T. ) ;
#112 = CARTESIAN_POINT ( 'NONE',  ( 1.939278741718347700, 2.449293598294705900E-016, -1.999999999999999600 ) ) ;
#113 = EDGE_LOOP ( 'NONE', ( #273, #166, #254 ) ) ;
#114 = AXIS2_PLACEMENT_3D ( 'NONE', #83, #211, #185 ) ;
#115 = SURFACE_SIDE_STYLE ('',( #86 ) ) ;
#116 = AXIS2_PLACEMENT_3D ( 'NONE', #32, #90, #64 ) ;
#117 = CARTESIAN_POINT ( 'NONE',  ( 3.913437501628914500, 0.0000000000000000000, 0.0000000000000000000 ) ) ;
#118 = DIRECTION ( 'NONE',  ( -0.0000000000000000000, 1.000000000000000000, 1.224646799147353200E-016 ) ) ;
#119 = CIRCLE ( 'NONE', #108, 2.664999999999999600 ) ;
#120 = AXIS2_PLACEMENT_3D ( 'NONE', #131, #157, #159 ) ;
#121 = CYLINDRICAL_SURFACE ( 'NONE', #164, 2.000000000000000000 ) ;
#122 = VERTEX_POINT ( 'NONE', #294 ) ;
#123 = CARTESIAN_POINT ( 'NONE',  ( 4.965965311348841600, 0.0000000000000000000, 1.002502318057723400E-018 ) ) ;
#124 = DIRECTION ( 'NONE',  ( 0.0000000000000000000, 0.0000000000000000000, 1.000000000000000000 ) ) ;
#125 =( GEOMETRIC_REPRESENTATION_CONTEXT ( 3 ) GLOBAL_UNCERTAINTY_ASSIGNED_CONTEXT ( ( #158 ) ) GLOBAL_UNIT_ASSIGNED_CONTEXT ( ( #24, #193, #21 ) ) REPRESENTATION_CONTEXT ( 'NONE', 'WORKASPACE' ) );
#126 = CYLINDRICAL_SURFACE ( 'NONE', #120, 1.999999999999999100 ) ;
#127 = ORIENTED_EDGE ( 'NONE', *, *, #248, .T. ) ;
#128 = CARTESIAN_POINT ( 'NONE',  ( 1.939278741718347700, 0.0000000000000000000, 0.0000000000000000000 ) ) ;
#129 = DIRECTION ( 'NONE',  ( -1.000000000000000000, -0.0000000000000000000, -0.0000000000000000000 ) ) ;
#130 = CARTESIAN_POINT ( 'NONE',  ( 0.1779653113488418000, 0.0000000000000000000, -1.016439536705160400E-017 ) ) ;
#131 = CARTESIAN_POINT ( 'NONE',  ( -0.5519199926577972300, 0.0000000000000000000, 0.0000000000000000000 ) ) ;
#132 = AXIS2_PLACEMENT_3D ( 'NONE', #130, #118, #170 ) ;
#133 = ORIENTED_EDGE ( 'NONE', *, *, #271, .T. ) ;
#134 = DIRECTION ( 'NONE',  ( -1.000000000000000000, -0.0000000000000000000, -0.0000000000000000000 ) ) ;
#135 = COLOUR_RGB ( '',1.000000000000000000, 1.000000000000000000, 1.000000000000000000 ) ;
#136 = ADVANCED_BREP_SHAPE_REPRESENTATION ( '145002', ( #244, #191, #57 ), #125 ) ;
#137 = SPHERICAL_SURFACE ( 'NONE', #177, 6.418999999999999600 ) ;
#138 = ORIENTED_EDGE ( 'NONE', *, *, #202, .F. ) ;
#139 = DIRECTION ( 'NONE',  ( 0.0000000000000000000, -1.224646799147353200E-016, 1.000000000000000000 ) ) ;
#140 = ADVANCED_FACE ( 'NONE', ( #228 ), #137, .T. ) ;
#141 = DIRECTION ( 'NONE',  ( 0.0000000000000000000, 0.0000000000000000000, 1.000000000000000000 ) ) ;
#142 = COLOUR_RGB ( '',1.000000000000000000, 1.000000000000000000, 1.000000000000000000 ) ;
#143 = VERTEX_POINT ( 'NONE', #112 ) ;
#144 = CIRCLE ( 'NONE', #293, 2.000000000000000000 ) ;
#145 = DIRECTION ( 'NONE',  ( 1.000000000000000000, 0.0000000000000000000, 0.0000000000000000000 ) ) ;
#146 = DIRECTION ( 'NONE',  ( 0.0000000000000000000, 0.0000000000000000000, 1.000000000000000000 ) ) ;
#147 = ORIENTED_EDGE ( 'NONE', *, *, #245, .F. ) ;
#148 = AXIS2_PLACEMENT_3D ( 'NONE', #319, #46, #232 ) ;
#149 = SPHERICAL_SURFACE ( 'NONE', #78, 2.664999999999999600 ) ;
#150 = VERTEX_POINT ( 'NONE', #82 ) ;
#151 = MECHANICAL_DESIGN_GEOMETRIC_PRESENTATION_REPRESENTATION (  '', ( #249 ), #44 ) ;
#152 = FACE_OUTER_BOUND ( 'NONE', #208, .T. ) ;
#153 = EDGE_CURVE ( 'NONE', #302, #234, #268, .T. ) ;
#154 = EDGE_LOOP ( 'NONE', ( #283, #315, #13 ) ) ;
#155 = PRODUCT_RELATED_PRODUCT_CATEGORY ( 'part', '', ( #251 ) ) ;
#156 = LINE ( 'NONE', #233, #182 ) ;
#157 = DIRECTION ( 'NONE',  ( -1.000000000000000000, -0.0000000000000000000, -0.0000000000000000000 ) ) ;
#158 = UNCERTAINTY_MEASURE_WITH_UNIT (LENGTH_MEASURE( 1.000000000000000100E-005 ), #24, 'distance_accuracy_value', 'NONE');
#159 = DIRECTION ( 'NONE',  ( 0.0000000000000000000, 0.0000000000000000000, 1.000000000000000000 ) ) ;
#160 = CARTESIAN_POINT ( 'NONE',  ( 1.133429727691463100, -2.449293598294706900E-016, 2.000000000000000000 ) ) ;
#161 = EDGE_LOOP ( 'NONE', ( #275, #246, #23 ) ) ;
#162 = SURFACE_SIDE_STYLE ('',( #258 ) ) ;
#163 = CARTESIAN_POINT ( 'NONE',  ( -0.8160621761658039000, 2.449293598294706400E-016, -2.000000000000000000 ) ) ;
#164 = AXIS2_PLACEMENT_3D ( 'NONE', #303, #129, #29 ) ;
#165 = CARTESIAN_POINT ( 'NONE',  ( 0.0000000000000000000, 0.0000000000000000000, 0.0000000000000000000 ) ) ;
#166 = ORIENTED_EDGE ( 'NONE', *, *, #34, .T. ) ;
#167 = EDGE_LOOP ( 'NONE', ( #257, #26, #63, #338 ) ) ;
#168 = AXIS2_PLACEMENT_3D ( 'NONE', #117, #326, #298 ) ;
#169 = FILL_AREA_STYLE ('',( #339 ) ) ;
#170 = DIRECTION ( 'NONE',  ( 0.0000000000000000000, -1.224646799147353200E-016, 1.000000000000000000 ) ) ;
#171 = ORIENTED_EDGE ( 'NONE', *, *, #342, .F. ) ;
#172 =( NAMED_UNIT ( * ) SI_UNIT ( $, .STERADIAN. ) SOLID_ANGLE_UNIT ( ) );
#173 =( NAMED_UNIT ( * ) SI_UNIT ( $, .STERADIAN. ) SOLID_ANGLE_UNIT ( ) );
#174 = UNCERTAINTY_MEASURE_WITH_UNIT (LENGTH_MEASURE( 1.000000000000000100E-005 ), #3, 'distance_accuracy_value', 'NONE');
#175 = PRESENTATION_LAYER_ASSIGNMENT (  '', '', ( #249 ) ) ;
#176 = ORIENTED_EDGE ( 'NONE', *, *, #50, .F. ) ;
#177 = AXIS2_PLACEMENT_3D ( 'NONE', #99, #51, #317 ) ;
#178 = FACE_OUTER_BOUND ( 'NONE', #10, .T. ) ;
#179 = CARTESIAN_POINT ( 'NONE',  ( 1.133429727691463100, 0.0000000000000000000, -2.000000000000000000 ) ) ;
#180 = ORIENTED_EDGE ( 'NONE', *, *, #305, .F. ) ;
#181 = LINE ( 'NONE', #163, #98 ) ;
#182 = VECTOR ( 'NONE', #269, 1000.000000000000000 ) ;
#183 = ORIENTED_EDGE ( 'NONE', *, *, #231, .F. ) ;
#184 = APPLICATION_PROTOCOL_DEFINITION ( 'draft international standard', 'automotive_design', 1998, #308 ) ;
#185 = DIRECTION ( 'NONE',  ( 0.0000000000000000000, 0.0000000000000000000, 1.000000000000000000 ) ) ;
#186 = CARTESIAN_POINT ( 'NONE',  ( 0.1779653113488418000, 0.0000000000000000000, -1.016439536705160400E-017 ) ) ;
#187 = EDGE_LOOP ( 'NONE', ( #58, #70, #147 ) ) ;
#188 =( LENGTH_UNIT ( ) NAMED_UNIT ( * ) SI_UNIT ( .MILLI., .METRE. ) );
#189 = EDGE_CURVE ( 'NONE', #150, #143, #285, .T. ) ;
#190 = CARTESIAN_POINT ( 'NONE',  ( -2.186034688651158600, 0.0000000000000000000, 0.0000000000000000000 ) ) ;
#191 = MANIFOLD_SOLID_BREP ( 'Ðý×ª3', #196 ) ;
#192 = FACE_OUTER_BOUND ( 'NONE', #161, .T. ) ;
#193 =( NAMED_UNIT ( * ) PLANE_ANGLE_UNIT ( ) SI_UNIT ( $, .RADIAN. ) );
#194 = AXIS2_PLACEMENT_3D ( 'NONE', #223, #324, #30 ) ;
#195 = CARTESIAN_POINT ( 'NONE',  ( 1.939278741718348600, 0.0000000000000000000, 0.0000000000000000000 ) ) ;
#196 = CLOSED_SHELL ( 'NONE', ( #140, #201, #299, #92, #68, #297 ) ) ;
#197 = CARTESIAN_POINT ( 'NONE',  ( 0.1779653113488418000, 0.0000000000000000000, -1.016439536705160400E-017 ) ) ;
#198 =( NAMED_UNIT ( * ) PLANE_ANGLE_UNIT ( ) SI_UNIT ( $, .RADIAN. ) );
#199 = ADVANCED_FACE ( 'NONE', ( #152 ), #11, .T. ) ;
#200 = FACE_OUTER_BOUND ( 'NONE', #80, .T. ) ;
#201 = ADVANCED_FACE ( 'NONE', ( #312 ), #222, .T. ) ;
#202 = EDGE_CURVE ( 'NONE', #234, #71, #181, .T. ) ;
#203 = CIRCLE ( 'NONE', #116, 4.323000000000000400 ) ;
#204 = EDGE_CURVE ( 'NONE', #143, #150, #252, .T. ) ;
#205 = SPHERICAL_SURFACE ( 'NONE', #218, 4.323000000000000400 ) ;
#206 = ORIENTED_EDGE ( 'NONE', *, *, #202, .T. ) ;
#207 = DIRECTION ( 'NONE',  ( 0.0000000000000000000, 1.000000000000000000, 0.0000000000000000000 ) ) ;
#208 = EDGE_LOOP ( 'NONE', ( #54, #127, #171 ) ) ;
#209 = CYLINDRICAL_SURFACE ( 'NONE', #306, 2.000000000000000000 ) ;
#210 = ORIENTED_EDGE ( 'NONE', *, *, #248, .F. ) ;
#211 = DIRECTION ( 'NONE',  ( -1.000000000000000000, -0.0000000000000000000, -0.0000000000000000000 ) ) ;
#212 = CARTESIAN_POINT ( 'NONE',  ( 3.913437501628914500, 0.0000000000000000000, 1.999999999999998200 ) ) ;
#213 = CARTESIAN_POINT ( 'NONE',  ( 1.939278741718348600, 0.0000000000000000000, 2.000000000000000000 ) ) ;
#214 = DIRECTION ( 'NONE',  ( 0.0000000000000000000, 0.0000000000000000000, 1.000000000000000000 ) ) ;
#215 = ORIENTED_EDGE ( 'NONE', *, *, #189, .T. ) ;
#216 = PRESENTATION_STYLE_ASSIGNMENT (( #296 ) ) ;
#217 = ORIENTED_EDGE ( 'NONE', *, *, #97, .F. ) ;
#218 = AXIS2_PLACEMENT_3D ( 'NONE', #313, #38, #288 ) ;
#219 = DIRECTION ( 'NONE',  ( 0.0000000000000000000, -1.000000000000000000, 0.0000000000000000000 ) ) ;
#220 =( NAMED_UNIT ( * ) SI_UNIT ( $, .STERADIAN. ) SOLID_ANGLE_UNIT ( ) );
#221 = CIRCLE ( 'NONE', #194, 1.999999999999998200 ) ;
#222 = CYLINDRICAL_SURFACE ( 'NONE', #310, 1.999999999999999100 ) ;
#223 = CARTESIAN_POINT ( 'NONE',  ( 3.913437501628914500, 0.0000000000000000000, 0.0000000000000000000 ) ) ;
#224 = DIRECTION ( 'NONE',  ( 0.0000000000000000000, -1.000000000000000000, 0.0000000000000000000 ) ) ;
#225 = AXIS2_PLACEMENT_3D ( 'NONE', #91, #280, #146 ) ;
#226 = CARTESIAN_POINT ( 'NONE',  ( -0.5519199926577972300, 0.0000000000000000000, 0.0000000000000000000 ) ) ;
#227 = AXIS2_PLACEMENT_3D ( 'NONE', #195, #5, #265 ) ;
#228 = FACE_OUTER_BOUND ( 'NONE', #347, .T. ) ;
#229 = UNCERTAINTY_MEASURE_WITH_UNIT (LENGTH_MEASURE( 1.000000000000000100E-005 ), #188, 'distance_accuracy_value', 'NONE');
#230 = CARTESIAN_POINT ( 'NONE',  ( 1.133429727691463100, 0.0000000000000000000, 0.0000000000000000000 ) ) ;
#231 = EDGE_CURVE ( 'NONE', #14, #332, #105, .T. ) ;
#232 = DIRECTION ( 'NONE',  ( 0.0000000000000000000, 0.0000000000000000000, 1.000000000000000000 ) ) ;
#233 = CARTESIAN_POINT ( 'NONE',  ( -0.5519199926577972300, 2.449293598294705400E-016, -1.999999999999999100 ) ) ;
#234 = VERTEX_POINT ( 'NONE', #264 ) ;
#235 = FILL_AREA_STYLE ('',( #106 ) ) ;
#236 =( NAMED_UNIT ( * ) PLANE_ANGLE_UNIT ( ) SI_UNIT ( $, .RADIAN. ) );
#237 = DIRECTION ( 'NONE',  ( -0.0000000000000000000, 1.000000000000000000, 1.224646799147353200E-016 ) ) ;
#238 = CARTESIAN_POINT ( 'NONE',  ( -0.8160621761658039000, 0.0000000000000000000, 0.0000000000000000000 ) ) ;
#239 = DIRECTION ( 'NONE',  ( 0.0000000000000000000, -1.224646799147353200E-016, 1.000000000000000000 ) ) ;
#240 = EDGE_CURVE ( 'NONE', #320, #71, #144, .T. ) ;
#241 =( LENGTH_UNIT ( ) NAMED_UNIT ( * ) SI_UNIT ( .MILLI., .METRE. ) );
#242 = SURFACE_STYLE_USAGE ( .BOTH. , #262 ) ;
#243 = AXIS2_PLACEMENT_3D ( 'NONE', #7, #295, #337 ) ;
#244 = MANIFOLD_SOLID_BREP ( 'Ðý×ª1', #104 ) ;
#245 = EDGE_CURVE ( 'NONE', #332, #14, #221, .T. ) ;
#246 = ORIENTED_EDGE ( 'NONE', *, *, #74, .T. ) ;
#247 = DIRECTION ( 'NONE',  ( 0.0000000000000000000, 1.000000000000000000, -0.0000000000000000000 ) ) ;
#248 = EDGE_CURVE ( 'NONE', #320, #284, #203, .T. ) ;
#249 = STYLED_ITEM ( 'NONE', ( #102 ), #244 ) ;
#250 = CARTESIAN_POINT ( 'NONE',  ( -0.8160621761658039000, 0.0000000000000000000, 2.000000000000000000 ) ) ;
#251 = PRODUCT ( '145002', '145002', '', ( #344 ) ) ;
#252 = CIRCLE ( 'NONE', #2, 1.999999999999999600 ) ;
#253 = EDGE_CURVE ( 'NONE', #302, #320, #109, .T. ) ;
#254 = ORIENTED_EDGE ( 'NONE', *, *, #153, .F. ) ;
#255 = CIRCLE ( 'NONE', #114, 2.000000000000000000 ) ;
#256 = FILL_AREA_STYLE ('',( #45 ) ) ;
#257 = ORIENTED_EDGE ( 'NONE', *, *, #231, .T. ) ;
#258 = SURFACE_STYLE_FILL_AREA ( #256 ) ;
#259 = AXIS2_PLACEMENT_3D ( 'NONE', #322, #52, #8 ) ;
#260 = DIRECTION ( 'NONE',  ( -1.000000000000000000, -0.0000000000000000000, -0.0000000000000000000 ) ) ;
#261 = AXIS2_PLACEMENT_3D ( 'NONE', #186, #330, #47 ) ;
#262 = SURFACE_SIDE_STYLE ('',( #79 ) ) ;
#263 = SHAPE_DEFINITION_REPRESENTATION ( #39, #136 ) ;
#264 = CARTESIAN_POINT ( 'NONE',  ( 1.939278741718348600, 2.449293598294706400E-016, -2.000000000000000000 ) ) ;
#265 = DIRECTION ( 'NONE',  ( 0.0000000000000000000, 0.0000000000000000000, 1.000000000000000000 ) ) ;
#266 =( GEOMETRIC_REPRESENTATION_CONTEXT ( 3 ) GLOBAL_UNCERTAINTY_ASSIGNED_CONTEXT ( ( #274 ) ) GLOBAL_UNIT_ASSIGNED_CONTEXT ( ( #241, #236, #220 ) ) REPRESENTATION_CONTEXT ( 'NONE', 'WORKASPACE' ) );
#267 = EDGE_CURVE ( 'NONE', #14, #150, #96, .T. ) ;
#268 = CIRCLE ( 'NONE', #148, 2.000000000000000000 ) ;
#269 = DIRECTION ( 'NONE',  ( -1.000000000000000000, -0.0000000000000000000, -0.0000000000000000000 ) ) ;
#270 = PRODUCT_DEFINITION_CONTEXT ( 'detailed design', #341, 'design' ) ;
#271 = EDGE_CURVE ( 'NONE', #234, #302, #81, .T. ) ;
#272 = FACE_OUTER_BOUND ( 'NONE', #49, .T. ) ;
#273 = ORIENTED_EDGE ( 'NONE', *, *, #74, .F. ) ;
#274 = UNCERTAINTY_MEASURE_WITH_UNIT (LENGTH_MEASURE( 1.000000000000000100E-005 ), #241, 'distance_accuracy_value', 'NONE');
#275 = ORIENTED_EDGE ( 'NONE', *, *, #34, .F. ) ;
#276 = PRESENTATION_STYLE_ASSIGNMENT (( #242 ) ) ;
#277 = CARTESIAN_POINT ( 'NONE',  ( 4.232965311348841000, 0.0000000000000000000, 3.930503901863429700E-016 ) ) ;
#278 = SURFACE_STYLE_USAGE ( .BOTH. , #162 ) ;
#279 = CARTESIAN_POINT ( 'NONE',  ( 0.6429653113488413800, 0.0000000000000000000, -2.637049033176427200E-016 ) ) ;
#280 = DIRECTION ( 'NONE',  ( -1.000000000000000000, -0.0000000000000000000, -0.0000000000000000000 ) ) ;
#281 = STYLED_ITEM ( 'NONE', ( #276 ), #136 ) ;
#282 = FACE_OUTER_BOUND ( 'NONE', #31, .T. ) ;
#283 = ORIENTED_EDGE ( 'NONE', *, *, #37, .F. ) ;
#284 = VERTEX_POINT ( 'NONE', #279 ) ;
#285 = CIRCLE ( 'NONE', #225, 1.999999999999999600 ) ;
#286 = PRESENTATION_LAYER_ASSIGNMENT (  '', '', ( #15 ) ) ;
#287 = DIRECTION ( 'NONE',  ( 0.0000000000000000000, -1.000000000000000000, 0.0000000000000000000 ) ) ;
#288 = DIRECTION ( 'NONE',  ( 0.0000000000000000000, 0.0000000000000000000, -1.000000000000000000 ) ) ;
#289 = ORIENTED_EDGE ( 'NONE', *, *, #342, .T. ) ;
#290 = DIRECTION ( 'NONE',  ( -0.0000000000000000000, 1.000000000000000000, 1.224646799147353200E-016 ) ) ;
#291 = DIRECTION ( 'NONE',  ( 0.0000000000000000000, 0.0000000000000000000, 1.000000000000000000 ) ) ;
#292 =( GEOMETRIC_REPRESENTATION_CONTEXT ( 3 ) GLOBAL_UNCERTAINTY_ASSIGNED_CONTEXT ( ( #229 ) ) GLOBAL_UNIT_ASSIGNED_CONTEXT ( ( #188, #325, #173 ) ) REPRESENTATION_CONTEXT ( 'NONE', 'WORKASPACE' ) );
#293 = AXIS2_PLACEMENT_3D ( 'NONE', #230, #16, #307 ) ;
#294 = CARTESIAN_POINT ( 'NONE',  ( 2.842965311348840500, 0.0000000000000000000, 1.530197906193331500E-016 ) ) ;
#295 = DIRECTION ( 'NONE',  ( 0.0000000000000000000, 1.000000000000000000, 0.0000000000000000000 ) ) ;
#296 = SURFACE_STYLE_USAGE ( .BOTH. , #115 ) ;
#297 = ADVANCED_FACE ( 'NONE', ( #43 ), #62, .T. ) ;
#298 = DIRECTION ( 'NONE',  ( 0.0000000000000000000, 0.0000000000000000000, 1.000000000000000000 ) ) ;
#299 = ADVANCED_FACE ( 'NONE', ( #12 ), #110, .F. ) ;
#300 = CARTESIAN_POINT ( 'NONE',  ( 3.913437501628914500, 2.449293598294704900E-016, -1.999999999999998200 ) ) ;
#301 = CIRCLE ( 'NONE', #345, 4.323000000000000400 ) ;
#302 = VERTEX_POINT ( 'NONE', #213 ) ;
#303 = CARTESIAN_POINT ( 'NONE',  ( -0.8160621761658039000, 0.0000000000000000000, 0.0000000000000000000 ) ) ;
#304 = CARTESIAN_POINT ( 'NONE',  ( 4.965965311348841600, 0.0000000000000000000, 1.002502318057723400E-018 ) ) ;
#305 = EDGE_CURVE ( 'NONE', #332, #143, #156, .T. ) ;
#306 = AXIS2_PLACEMENT_3D ( 'NONE', #238, #260, #291 ) ;
#307 = DIRECTION ( 'NONE',  ( 0.0000000000000000000, 0.0000000000000000000, 1.000000000000000000 ) ) ;
#308 = APPLICATION_CONTEXT ( 'automotive_design' ) ;
#309 = DIRECTION ( 'NONE',  ( 0.0000000000000000000, 1.000000000000000000, 0.0000000000000000000 ) ) ;
#310 = AXIS2_PLACEMENT_3D ( 'NONE', #226, #84, #214 ) ;
#311 = AXIS2_PLACEMENT_3D ( 'NONE', #76, #224, #101 ) ;
#312 = FACE_OUTER_BOUND ( 'NONE', #167, .T. ) ;
#313 = CARTESIAN_POINT ( 'NONE',  ( 4.965965311348841600, 0.0000000000000000000, 1.002502318057723400E-018 ) ) ;
#314 = CARTESIAN_POINT ( 'NONE',  ( 0.1779653113488418000, 0.0000000000000000000, -1.016439536705160400E-017 ) ) ;
#315 = ORIENTED_EDGE ( 'NONE', *, *, #93, .T. ) ;
#316 = VECTOR ( 'NONE', #321, 1000.000000000000000 ) ;
#317 = DIRECTION ( 'NONE',  ( 0.0000000000000000000, 0.0000000000000000000, 1.000000000000000000 ) ) ;
#318 = ADVANCED_FACE ( 'NONE', ( #36 ), #121, .T. ) ;
#319 = CARTESIAN_POINT ( 'NONE',  ( 1.939278741718348600, 0.0000000000000000000, 0.0000000000000000000 ) ) ;
#320 = VERTEX_POINT ( 'NONE', #160 ) ;
#321 = DIRECTION ( 'NONE',  ( -1.000000000000000000, -0.0000000000000000000, -0.0000000000000000000 ) ) ;
#322 = CARTESIAN_POINT ( 'NONE',  ( 0.1779653113488418000, 0.0000000000000000000, -1.016439536705160400E-017 ) ) ;
#323 = CIRCLE ( 'NONE', #40, 2.664999999999999600 ) ;
#324 = DIRECTION ( 'NONE',  ( -1.000000000000000000, -0.0000000000000000000, -0.0000000000000000000 ) ) ;
#325 =( NAMED_UNIT ( * ) PLANE_ANGLE_UNIT ( ) SI_UNIT ( $, .RADIAN. ) );
#326 = DIRECTION ( 'NONE',  ( -1.000000000000000000, -0.0000000000000000000, -0.0000000000000000000 ) ) ;
#327 = CIRCLE ( 'NONE', #61, 6.418999999999999600 ) ;
#328 = ADVANCED_FACE ( 'NONE', ( #178 ), #209, .T. ) ;
#329 = DIRECTION ( 'NONE',  ( -1.000000000000000000, -0.0000000000000000000, -0.0000000000000000000 ) ) ;
#330 = DIRECTION ( 'NONE',  ( 0.0000000000000000000, 1.000000000000000000, 0.0000000000000000000 ) ) ;
#331 = VERTEX_POINT ( 'NONE', #277 ) ;
#332 = VERTEX_POINT ( 'NONE', #300 ) ;
#333 = FACE_OUTER_BOUND ( 'NONE', #113, .T. ) ;
#334 = VERTEX_POINT ( 'NONE', #53 ) ;
#335 = AXIS2_PLACEMENT_3D ( 'NONE', #123, #6, #33 ) ;
#336 = PRESENTATION_LAYER_ASSIGNMENT (  '', '', ( #281 ) ) ;
#337 = DIRECTION ( 'NONE',  ( 0.0000000000000000000, 0.0000000000000000000, 1.000000000000000000 ) ) ;
#338 = ORIENTED_EDGE ( 'NONE', *, *, #267, .F. ) ;
#339 = FILL_AREA_STYLE_COLOUR ( '', #75 ) ;
#340 = APPLICATION_PROTOCOL_DEFINITION ( 'draft international standard', 'automotive_design', 1998, #341 ) ;
#341 = APPLICATION_CONTEXT ( 'automotive_design' ) ;
#342 = EDGE_CURVE ( 'NONE', #71, #284, #301, .T. ) ;
#343 = DIRECTION ( 'NONE',  ( 0.0000000000000000000, 0.0000000000000000000, -1.000000000000000000 ) ) ;
#344 = PRODUCT_CONTEXT ( 'NONE', #308, 'mechanical' ) ;
#345 = AXIS2_PLACEMENT_3D ( 'NONE', #304, #247, #124 ) ;
#346 = CIRCLE ( 'NONE', #311, 6.418999999999999600 ) ;
#347 = EDGE_LOOP ( 'NONE', ( #217, #28, #183 ) ) ;
ENDSEC;
END-ISO-10303-21;
