ISO-10303-21;
HEADER;
FILE_DESCRIPTION (( 'STEP AP214' ),
    '1' );
FILE_NAME ('145010.STEP',
    '2019-05-07T03:23:37',
    ( 'user' ),
    ( 'Î¢ÈíÖÐ¹ú' ),
    'SwSTEP 2.0',
    'SolidWorks 2016',
    '' );
FILE_SCHEMA (( 'AUTOMOTIVE_DESIGN' ));
ENDSEC;

DATA;
#1 = AXIS2_PLACEMENT_3D ( 'NONE', #347, #310, #72 ) ;
#2 = ADVANCED_FACE ( 'NONE', ( #145 ), #136, .F. ) ;
#3 = CARTESIAN_POINT ( 'NONE',  ( 9.436276432361415400, 0.0000000000000000000, 3.149999999999999500 ) ) ;
#4 = SURFACE_SIDE_STYLE ('',( #171 ) ) ;
#5 = DIRECTION ( 'NONE',  ( -1.000000000000000000, -0.0000000000000000000, -0.0000000000000000000 ) ) ;
#6 = CARTESIAN_POINT ( 'NONE',  ( 7.555629336014964900, 0.0000000000000000000, 3.149999999999999900 ) ) ;
#7 = CIRCLE ( 'NONE', #216, 10.36000000000000100 ) ;
#8 = CYLINDRICAL_SURFACE ( 'NONE', #231, 3.149999999999999900 ) ;
#9 = DIRECTION ( 'NONE',  ( 0.0000000000000000000, 1.000000000000000000, 0.0000000000000000000 ) ) ;
#10 = DIRECTION ( 'NONE',  ( 0.0000000000000000000, 0.0000000000000000000, 1.000000000000000000 ) ) ;
#11 = DIRECTION ( 'NONE',  ( 0.0000000000000000000, 1.000000000000000000, 0.0000000000000000000 ) ) ;
#12 = CARTESIAN_POINT ( 'NONE',  ( 6.173100806319661500, 0.0000000000000000000, 0.0000000000000000000 ) ) ;
#13 = DIRECTION ( 'NONE',  ( 0.0000000000000000000, 0.0000000000000000000, 1.000000000000000000 ) ) ;
#14 = DIRECTION ( 'NONE',  ( 0.0000000000000000000, 0.0000000000000000000, 1.000000000000000000 ) ) ;
#15 = AXIS2_PLACEMENT_3D ( 'NONE', #160, #265, #61 ) ;
#16 = DIRECTION ( 'NONE',  ( -1.000000000000000000, -0.0000000000000000000, -0.0000000000000000000 ) ) ;
#17 = EDGE_CURVE ( 'NONE', #191, #200, #340, .T. ) ;
#18 = DIRECTION ( 'NONE',  ( 0.0000000000000000000, 0.0000000000000000000, 1.000000000000000000 ) ) ;
#19 = ORIENTED_EDGE ( 'NONE', *, *, #251, .T. ) ;
#20 = CARTESIAN_POINT ( 'NONE',  ( 1.094604339932686600, 0.0000000000000000000, -3.388131789017201400E-018 ) ) ;
#21 = ADVANCED_FACE ( 'NONE', ( #43 ), #51, .T. ) ;
#22 = DIRECTION ( 'NONE',  ( -1.000000000000000000, -0.0000000000000000000, -0.0000000000000000000 ) ) ;
#23 = AXIS2_PLACEMENT_3D ( 'NONE', #278, #280, #281 ) ;
#24 = DIRECTION ( 'NONE',  ( 0.0000000000000000000, 0.0000000000000000000, 1.000000000000000000 ) ) ;
#25 = VERTEX_POINT ( 'NONE', #187 ) ;
#26 = CARTESIAN_POINT ( 'NONE',  ( -0.5519199926577972300, 0.0000000000000000000, 0.0000000000000000000 ) ) ;
#27 = MECHANICAL_DESIGN_GEOMETRIC_PRESENTATION_REPRESENTATION (  '', ( #113 ), #58 ) ;
#28 = DIRECTION ( 'NONE',  ( 0.0000000000000000000, 0.0000000000000000000, 1.000000000000000000 ) ) ;
#29 = UNCERTAINTY_MEASURE_WITH_UNIT (LENGTH_MEASURE( 1.000000000000000100E-005 ), #155, 'distance_accuracy_value', 'NONE');
#30 = DIRECTION ( 'NONE',  ( -1.000000000000000000, -0.0000000000000000000, -0.0000000000000000000 ) ) ;
#31 = CARTESIAN_POINT ( 'NONE',  ( -10.58139566006731500, 0.0000000000000000000, 0.0000000000000000000 ) ) ;
#32 = ORIENTED_EDGE ( 'NONE', *, *, #40, .F. ) ;
#33 = AXIS2_PLACEMENT_3D ( 'NONE', #31, #9, #13 ) ;
#34 = FILL_AREA_STYLE_COLOUR ( '', #203 ) ;
#35 = EDGE_CURVE ( 'NONE', #234, #25, #239, .T. ) ;
#36 =( LENGTH_UNIT ( ) NAMED_UNIT ( * ) SI_UNIT ( .MILLI., .METRE. ) );
#37 = ORIENTED_EDGE ( 'NONE', *, *, #299, .F. ) ;
#38 = PRODUCT_DEFINITION_CONTEXT ( 'detailed design', #86, 'design' ) ;
#39 = EDGE_LOOP ( 'NONE', ( #284, #270, #230 ) ) ;
#40 = EDGE_CURVE ( 'NONE', #25, #314, #148, .T. ) ;
#41 = AXIS2_PLACEMENT_3D ( 'NONE', #124, #164, #10 ) ;
#42 = SURFACE_STYLE_USAGE ( .BOTH. , #4 ) ;
#43 = FACE_OUTER_BOUND ( 'NONE', #128, .T. ) ;
#44 = ORIENTED_EDGE ( 'NONE', *, *, #256, .T. ) ;
#45 = DIRECTION ( 'NONE',  ( -0.0000000000000000000, 1.000000000000000000, 1.224646799147353200E-016 ) ) ;
#46 = EDGE_CURVE ( 'NONE', #294, #191, #244, .T. ) ;
#47 = CARTESIAN_POINT ( 'NONE',  ( 1.094604339932686600, 0.0000000000000000000, -3.388131789017201400E-018 ) ) ;
#48 = CIRCLE ( 'NONE', #92, 3.150000000000001700 ) ;
#49 = UNCERTAINTY_MEASURE_WITH_UNIT (LENGTH_MEASURE( 1.000000000000000100E-005 ), #333, 'distance_accuracy_value', 'NONE');
#50 = EDGE_CURVE ( 'NONE', #177, #200, #96, .T. ) ;
#51 = SPHERICAL_SURFACE ( 'NONE', #169, 7.188000000000000600 ) ;
#52 = DIRECTION ( 'NONE',  ( 0.0000000000000000000, -1.224646799147353200E-016, 1.000000000000000000 ) ) ;
#53 =( NAMED_UNIT ( * ) SI_UNIT ( $, .STERADIAN. ) SOLID_ANGLE_UNIT ( ) );
#54 =( NAMED_UNIT ( * ) PLANE_ANGLE_UNIT ( ) SI_UNIT ( $, .RADIAN. ) );
#55 = APPLICATION_PROTOCOL_DEFINITION ( 'draft international standard', 'automotive_design', 1998, #67 ) ;
#56 = EDGE_CURVE ( 'NONE', #127, #191, #95, .T. ) ;
#57 = MANIFOLD_SOLID_BREP ( 'Ðý×ª1', #306 ) ;
#58 =( GEOMETRIC_REPRESENTATION_CONTEXT ( 3 ) GLOBAL_UNCERTAINTY_ASSIGNED_CONTEXT ( ( #49 ) ) GLOBAL_UNIT_ASSIGNED_CONTEXT ( ( #333, #334, #341 ) ) REPRESENTATION_CONTEXT ( 'NONE', 'WORKASPACE' ) );
#59 = FACE_OUTER_BOUND ( 'NONE', #126, .T. ) ;
#60 = DIRECTION ( 'NONE',  ( -1.000000000000000000, -0.0000000000000000000, -0.0000000000000000000 ) ) ;
#61 = DIRECTION ( 'NONE',  ( 0.0000000000000000000, 0.0000000000000000000, 1.000000000000000000 ) ) ;
#62 = DIRECTION ( 'NONE',  ( 0.0000000000000000000, 0.0000000000000000000, 1.000000000000000000 ) ) ;
#63 = CARTESIAN_POINT ( 'NONE',  ( 1.094604339932686600, 0.0000000000000000000, -3.388131789017201400E-018 ) ) ;
#64 = FILL_AREA_STYLE ('',( #34 ) ) ;
#65 = ORIENTED_EDGE ( 'NONE', *, *, #175, .T. ) ;
#66 = PRESENTATION_LAYER_ASSIGNMENT (  '', '', ( #71 ) ) ;
#67 = APPLICATION_CONTEXT ( 'automotive_design' ) ;
#68 = AXIS2_PLACEMENT_3D ( 'NONE', #112, #5, #197 ) ;
#69 = SURFACE_STYLE_USAGE ( .BOTH. , #70 ) ;
#70 = SURFACE_SIDE_STYLE ('',( #90 ) ) ;
#71 = STYLED_ITEM ( 'NONE', ( #267 ), #214 ) ;
#72 = DIRECTION ( 'NONE',  ( 0.0000000000000000000, 0.0000000000000000000, -1.000000000000000000 ) ) ;
#73 = ORIENTED_EDGE ( 'NONE', *, *, #56, .T. ) ;
#74 = SPHERICAL_SURFACE ( 'NONE', #1, 10.36000000000000100 ) ;
#75 = ORIENTED_EDGE ( 'NONE', *, *, #199, .F. ) ;
#76 = CYLINDRICAL_SURFACE ( 'NONE', #68, 3.150000000000000800 ) ;
#77 = ADVANCED_FACE ( 'NONE', ( #335 ), #74, .T. ) ;
#78 = AXIS2_PLACEMENT_3D ( 'NONE', #289, #290, #292 ) ;
#79 = DIRECTION ( 'NONE',  ( -1.000000000000000000, -0.0000000000000000000, -0.0000000000000000000 ) ) ;
#80 = SURFACE_STYLE_FILL_AREA ( #324 ) ;
#81 = CARTESIAN_POINT ( 'NONE',  ( 1.094604339932686600, 0.0000000000000000000, -3.388131789017201400E-018 ) ) ;
#82 =( NAMED_UNIT ( * ) SI_UNIT ( $, .STERADIAN. ) SOLID_ANGLE_UNIT ( ) );
#83 = DIRECTION ( 'NONE',  ( 0.0000000000000000000, 0.0000000000000000000, 1.000000000000000000 ) ) ;
#84 = COLOUR_RGB ( '',1.000000000000000000, 1.000000000000000000, 1.000000000000000000 ) ;
#85 = PRODUCT_RELATED_PRODUCT_CATEGORY ( 'part', '', ( #104 ) ) ;
#86 = APPLICATION_CONTEXT ( 'automotive_design' ) ;
#87 = FACE_OUTER_BOUND ( 'NONE', #168, .T. ) ;
#88 = PRODUCT_CONTEXT ( 'NONE', #67, 'mechanical' ) ;
#89 = CARTESIAN_POINT ( 'NONE',  ( 7.555629336014964900, 3.857637417314162700E-016, -3.149999999999999900 ) ) ;
#90 = SURFACE_STYLE_FILL_AREA ( #64 ) ;
#91 = DIRECTION ( 'NONE',  ( 1.000000000000000000, 0.0000000000000000000, 0.0000000000000000000 ) ) ;
#92 = AXIS2_PLACEMENT_3D ( 'NONE', #106, #339, #202 ) ;
#93 = CARTESIAN_POINT ( 'NONE',  ( -0.8160621761658039000, 0.0000000000000000000, 0.0000000000000000000 ) ) ;
#94 = CARTESIAN_POINT ( 'NONE',  ( 0.0000000000000000000, 0.0000000000000000000, 0.0000000000000000000 ) ) ;
#95 = CIRCLE ( 'NONE', #342, 3.149999999999999500 ) ;
#96 = CIRCLE ( 'NONE', #288, 3.150000000000001700 ) ;
#97 = AXIS2_PLACEMENT_3D ( 'NONE', #20, #303, #151 ) ;
#98 = ADVANCED_FACE ( 'NONE', ( #235 ), #120, .T. ) ;
#99 =( NAMED_UNIT ( * ) SI_UNIT ( $, .STERADIAN. ) SOLID_ANGLE_UNIT ( ) );
#100 = ORIENTED_EDGE ( 'NONE', *, *, #35, .F. ) ;
#101 =( GEOMETRIC_REPRESENTATION_CONTEXT ( 3 ) GLOBAL_UNCERTAINTY_ASSIGNED_CONTEXT ( ( #346 ) ) GLOBAL_UNIT_ASSIGNED_CONTEXT ( ( #117, #108, #82 ) ) REPRESENTATION_CONTEXT ( 'NONE', 'WORKASPACE' ) );
#102 = ADVANCED_FACE ( 'NONE', ( #223 ), #8, .T. ) ;
#103 = CARTESIAN_POINT ( 'NONE',  ( 9.436276432361415400, 3.857637417314163200E-016, -3.149999999999999500 ) ) ;
#104 = PRODUCT ( '145010', '145010', '', ( #88 ) ) ;
#105 =( GEOMETRIC_REPRESENTATION_CONTEXT ( 3 ) GLOBAL_UNCERTAINTY_ASSIGNED_CONTEXT ( ( #277 ) ) GLOBAL_UNIT_ASSIGNED_CONTEXT ( ( #36, #54, #53 ) ) REPRESENTATION_CONTEXT ( 'NONE', 'WORKASPACE' ) );
#106 = CARTESIAN_POINT ( 'NONE',  ( 7.555629336014964000, 0.0000000000000000000, 0.0000000000000000000 ) ) ;
#107 = VECTOR ( 'NONE', #250, 1000.000000000000000 ) ;
#108 =( NAMED_UNIT ( * ) PLANE_ANGLE_UNIT ( ) SI_UNIT ( $, .RADIAN. ) );
#109 = CARTESIAN_POINT ( 'NONE',  ( -0.8160621761658039000, 0.0000000000000000000, 3.149999999999999900 ) ) ;
#110 = CIRCLE ( 'NONE', #312, 3.149999999999999900 ) ;
#111 = CARTESIAN_POINT ( 'NONE',  ( 8.282604339932685600, 0.0000000000000000000, 4.367499278245413800E-016 ) ) ;
#112 = CARTESIAN_POINT ( 'NONE',  ( -0.5519199926577972300, 0.0000000000000000000, 0.0000000000000000000 ) ) ;
#113 = STYLED_ITEM ( 'NONE', ( #172 ), #57 ) ;
#114 = CIRCLE ( 'NONE', #266, 3.149999999999999900 ) ;
#115 = SPHERICAL_SURFACE ( 'NONE', #226, 7.188000000000000600 ) ;
#116 = FILL_AREA_STYLE_COLOUR ( '', #246 ) ;
#117 =( LENGTH_UNIT ( ) NAMED_UNIT ( * ) SI_UNIT ( .MILLI., .METRE. ) );
#118 = ORIENTED_EDGE ( 'NONE', *, *, #193, .F. ) ;
#119 = ORIENTED_EDGE ( 'NONE', *, *, #50, .F. ) ;
#120 = SPHERICAL_SURFACE ( 'NONE', #33, 20.26399999999999900 ) ;
#121 = EDGE_CURVE ( 'NONE', #255, #308, #110, .T. ) ;
#122 = PRESENTATION_LAYER_ASSIGNMENT (  '', '', ( #113 ) ) ;
#123 = LINE ( 'NONE', #236, #201 ) ;
#124 = CARTESIAN_POINT ( 'NONE',  ( 9.436276432361415400, 0.0000000000000000000, 0.0000000000000000000 ) ) ;
#125 = MECHANICAL_DESIGN_GEOMETRIC_PRESENTATION_REPRESENTATION (  '', ( #147 ), #132 ) ;
#126 = EDGE_LOOP ( 'NONE', ( #204, #247, #252 ) ) ;
#127 = VERTEX_POINT ( 'NONE', #3 ) ;
#128 = EDGE_LOOP ( 'NONE', ( #75, #307, #285 ) ) ;
#129 = ORIENTED_EDGE ( 'NONE', *, *, #199, .T. ) ;
#130 = FACE_OUTER_BOUND ( 'NONE', #222, .T. ) ;
#131 = CIRCLE ( 'NONE', #182, 3.149999999999999900 ) ;
#132 =( GEOMETRIC_REPRESENTATION_CONTEXT ( 3 ) GLOBAL_UNCERTAINTY_ASSIGNED_CONTEXT ( ( #29 ) ) GLOBAL_UNIT_ASSIGNED_CONTEXT ( ( #155, #268, #99 ) ) REPRESENTATION_CONTEXT ( 'NONE', 'WORKASPACE' ) );
#133 = ORIENTED_EDGE ( 'NONE', *, *, #260, .F. ) ;
#134 = DIRECTION ( 'NONE',  ( 0.0000000000000000000, 1.224646799147353200E-016, -1.000000000000000000 ) ) ;
#135 = CARTESIAN_POINT ( 'NONE',  ( 7.555629336014964900, 0.0000000000000000000, 0.0000000000000000000 ) ) ;
#136 = SPHERICAL_SURFACE ( 'NONE', #332, 7.187999999999997900 ) ;
#137 = AXIS2_PLACEMENT_3D ( 'NONE', #94, #83, #91 ) ;
#138 = VERTEX_POINT ( 'NONE', #111 ) ;
#139 = LINE ( 'NONE', #211, #287 ) ;
#140 = DIRECTION ( 'NONE',  ( 0.0000000000000000000, 0.0000000000000000000, 1.000000000000000000 ) ) ;
#141 = APPLICATION_PROTOCOL_DEFINITION ( 'draft international standard', 'automotive_design', 1998, #86 ) ;
#142 = EDGE_LOOP ( 'NONE', ( #225, #129, #188 ) ) ;
#143 = FILL_AREA_STYLE ('',( #116 ) ) ;
#144 = EDGE_LOOP ( 'NONE', ( #178, #218, #301, #37 ) ) ;
#145 = FACE_OUTER_BOUND ( 'NONE', #320, .T. ) ;
#146 = CIRCLE ( 'NONE', #154, 7.188000000000000600 ) ;
#147 = STYLED_ITEM ( 'NONE', ( #159 ), #150 ) ;
#148 = CIRCLE ( 'NONE', #78, 10.36000000000000100 ) ;
#149 = CARTESIAN_POINT ( 'NONE',  ( 6.173100806319661500, -3.857637417314162200E-016, 3.149999999999999500 ) ) ;
#150 = MANIFOLD_SOLID_BREP ( 'Ðý×ª3', #166 ) ;
#151 = DIRECTION ( 'NONE',  ( 0.0000000000000000000, -1.224646799147353200E-016, 1.000000000000000000 ) ) ;
#152 = DIRECTION ( 'NONE',  ( 0.0000000000000000000, 0.0000000000000000000, 1.000000000000000000 ) ) ;
#153 = ORIENTED_EDGE ( 'NONE', *, *, #251, .F. ) ;
#154 = AXIS2_PLACEMENT_3D ( 'NONE', #296, #315, #302 ) ;
#155 =( LENGTH_UNIT ( ) NAMED_UNIT ( * ) SI_UNIT ( .MILLI., .METRE. ) );
#156 = FACE_OUTER_BOUND ( 'NONE', #142, .T. ) ;
#157 = ADVANCED_FACE ( 'NONE', ( #317 ), #276, .T. ) ;
#158 = DIRECTION ( 'NONE',  ( 0.0000000000000000000, -1.000000000000000000, 0.0000000000000000000 ) ) ;
#159 = PRESENTATION_STYLE_ASSIGNMENT (( #42 ) ) ;
#160 = CARTESIAN_POINT ( 'NONE',  ( -10.58139566006731500, 0.0000000000000000000, 0.0000000000000000000 ) ) ;
#161 = VERTEX_POINT ( 'NONE', #179 ) ;
#162 = CARTESIAN_POINT ( 'NONE',  ( 1.094604339932686600, 0.0000000000000000000, -3.388131789017201400E-018 ) ) ;
#163 = DIRECTION ( 'NONE',  ( -1.000000000000000000, -0.0000000000000000000, -0.0000000000000000000 ) ) ;
#164 = DIRECTION ( 'NONE',  ( -1.000000000000000000, -0.0000000000000000000, -0.0000000000000000000 ) ) ;
#165 = AXIS2_PLACEMENT_3D ( 'NONE', #293, #158, #241 ) ;
#166 = CLOSED_SHELL ( 'NONE', ( #257, #319, #311, #2, #174, #98 ) ) ;
#167 = EDGE_CURVE ( 'NONE', #138, #177, #186, .T. ) ;
#168 = EDGE_LOOP ( 'NONE', ( #273, #65, #32 ) ) ;
#169 = AXIS2_PLACEMENT_3D ( 'NONE', #181, #249, #253 ) ;
#170 = ORIENTED_EDGE ( 'NONE', *, *, #256, .F. ) ;
#171 = SURFACE_STYLE_FILL_AREA ( #143 ) ;
#172 = PRESENTATION_STYLE_ASSIGNMENT (( #330 ) ) ;
#173 = PRODUCT_DEFINITION ( 'Î´Öª', '', #309, #38 ) ;
#174 = ADVANCED_FACE ( 'NONE', ( #291 ), #76, .T. ) ;
#175 = EDGE_CURVE ( 'NONE', #234, #314, #7, .T. ) ;
#176 = AXIS2_PLACEMENT_3D ( 'NONE', #47, #45, #52 ) ;
#177 = VERTEX_POINT ( 'NONE', #213 ) ;
#178 = ORIENTED_EDGE ( 'NONE', *, *, #245, .F. ) ;
#179 = CARTESIAN_POINT ( 'NONE',  ( 8.282604339932687400, 0.0000000000000000000, 4.367499278245415800E-016 ) ) ;
#180 = PRODUCT_DEFINITION_SHAPE ( 'NONE', 'NONE',  #173 ) ;
#181 = CARTESIAN_POINT ( 'NONE',  ( 1.094604339932686600, 0.0000000000000000000, -3.388131789017201400E-018 ) ) ;
#182 = AXIS2_PLACEMENT_3D ( 'NONE', #228, #343, #297 ) ;
#183 = ORIENTED_EDGE ( 'NONE', *, *, #50, .T. ) ;
#184 = SHAPE_DEFINITION_REPRESENTATION ( #180, #214 ) ;
#185 = CIRCLE ( 'NONE', #165, 20.26399999999999900 ) ;
#186 = CIRCLE ( 'NONE', #220, 7.187999999999997900 ) ;
#187 = CARTESIAN_POINT ( 'NONE',  ( 6.173100806319661500, 0.0000000000000000000, -3.149999999999999500 ) ) ;
#188 = ORIENTED_EDGE ( 'NONE', *, *, #196, .F. ) ;
#189 = EDGE_CURVE ( 'NONE', #294, #127, #185, .T. ) ;
#190 = ORIENTED_EDGE ( 'NONE', *, *, #17, .T. ) ;
#191 = VERTEX_POINT ( 'NONE', #103 ) ;
#192 = FACE_OUTER_BOUND ( 'NONE', #39, .T. ) ;
#193 = EDGE_CURVE ( 'NONE', #308, #234, #298, .T. ) ;
#194 = CIRCLE ( 'NONE', #41, 3.149999999999999500 ) ;
#195 = AXIS2_PLACEMENT_3D ( 'NONE', #162, #224, #24 ) ;
#196 = EDGE_CURVE ( 'NONE', #308, #255, #131, .T. ) ;
#197 = DIRECTION ( 'NONE',  ( 0.0000000000000000000, 0.0000000000000000000, 1.000000000000000000 ) ) ;
#198 = DIRECTION ( 'NONE',  ( 0.0000000000000000000, -1.000000000000000000, 0.0000000000000000000 ) ) ;
#199 = EDGE_CURVE ( 'NONE', #161, #255, #331, .T. ) ;
#200 = VERTEX_POINT ( 'NONE', #263 ) ;
#201 = VECTOR ( 'NONE', #163, 1000.000000000000000 ) ;
#202 = DIRECTION ( 'NONE',  ( 0.0000000000000000000, 0.0000000000000000000, 1.000000000000000000 ) ) ;
#203 = COLOUR_RGB ( '',1.000000000000000000, 1.000000000000000000, 1.000000000000000000 ) ;
#204 = ORIENTED_EDGE ( 'NONE', *, *, #167, .F. ) ;
#205 = CARTESIAN_POINT ( 'NONE',  ( -0.5519199926577972300, 3.857637417314163700E-016, -3.150000000000000800 ) ) ;
#206 = AXIS2_PLACEMENT_3D ( 'NONE', #242, #271, #325 ) ;
#207 = DIRECTION ( 'NONE',  ( 0.0000000000000000000, 0.0000000000000000000, -1.000000000000000000 ) ) ;
#208 = EDGE_LOOP ( 'NONE', ( #264, #44, #19, #133 ) ) ;
#209 = ORIENTED_EDGE ( 'NONE', *, *, #196, .T. ) ;
#210 = ORIENTED_EDGE ( 'NONE', *, *, #175, .F. ) ;
#211 = CARTESIAN_POINT ( 'NONE',  ( -0.5519199926577972300, 0.0000000000000000000, 3.150000000000000800 ) ) ;
#212 = VECTOR ( 'NONE', #321, 1000.000000000000000 ) ;
#213 = CARTESIAN_POINT ( 'NONE',  ( 7.555629336014964000, 0.0000000000000000000, 3.149999999999999900 ) ) ;
#214 = ADVANCED_BREP_SHAPE_REPRESENTATION ( '145010', ( #57, #150, #137 ), #105 ) ;
#215 = CARTESIAN_POINT ( 'NONE',  ( 1.094604339932686600, 0.0000000000000000000, -3.388131789017201400E-018 ) ) ;
#216 = AXIS2_PLACEMENT_3D ( 'NONE', #217, #262, #134 ) ;
#217 = CARTESIAN_POINT ( 'NONE',  ( 16.04260433993268700, 0.0000000000000000000, 2.659115204278181500E-017 ) ) ;
#218 = ORIENTED_EDGE ( 'NONE', *, *, #121, .T. ) ;
#219 = EDGE_CURVE ( 'NONE', #161, #308, #146, .T. ) ;
#220 = AXIS2_PLACEMENT_3D ( 'NONE', #215, #198, #207 ) ;
#221 = ADVANCED_FACE ( 'NONE', ( #156 ), #115, .T. ) ;
#222 = EDGE_LOOP ( 'NONE', ( #73, #190, #119, #153 ) ) ;
#223 = FACE_OUTER_BOUND ( 'NONE', #283, .T. ) ;
#224 = DIRECTION ( 'NONE',  ( 0.0000000000000000000, 1.000000000000000000, 0.0000000000000000000 ) ) ;
#225 = ORIENTED_EDGE ( 'NONE', *, *, #219, .F. ) ;
#226 = AXIS2_PLACEMENT_3D ( 'NONE', #81, #11, #152 ) ;
#227 = ORIENTED_EDGE ( 'NONE', *, *, #167, .T. ) ;
#228 = CARTESIAN_POINT ( 'NONE',  ( 7.555629336014964900, 0.0000000000000000000, 0.0000000000000000000 ) ) ;
#229 = ADVANCED_FACE ( 'NONE', ( #87 ), #338, .T. ) ;
#230 = ORIENTED_EDGE ( 'NONE', *, *, #56, .F. ) ;
#231 = AXIS2_PLACEMENT_3D ( 'NONE', #269, #16, #62 ) ;
#232 = ORIENTED_EDGE ( 'NONE', *, *, #46, .F. ) ;
#233 = CARTESIAN_POINT ( 'NONE',  ( 7.555629336014964000, 0.0000000000000000000, 0.0000000000000000000 ) ) ;
#234 = VERTEX_POINT ( 'NONE', #149 ) ;
#235 = FACE_OUTER_BOUND ( 'NONE', #279, .T. ) ;
#236 = CARTESIAN_POINT ( 'NONE',  ( -0.8160621761658039000, 3.857637417314162700E-016, -3.149999999999999900 ) ) ;
#237 = AXIS2_PLACEMENT_3D ( 'NONE', #26, #30, #28 ) ;
#238 = DIRECTION ( 'NONE',  ( -1.000000000000000000, -0.0000000000000000000, -0.0000000000000000000 ) ) ;
#239 = CIRCLE ( 'NONE', #23, 3.149999999999999900 ) ;
#240 = CARTESIAN_POINT ( 'NONE',  ( 5.682604339932686900, 0.0000000000000000000, -6.077758899155472500E-016 ) ) ;
#241 = DIRECTION ( 'NONE',  ( 0.0000000000000000000, 0.0000000000000000000, -1.000000000000000000 ) ) ;
#242 = CARTESIAN_POINT ( 'NONE',  ( 16.04260433993268700, 0.0000000000000000000, 2.659115204278181500E-017 ) ) ;
#243 = DIRECTION ( 'NONE',  ( 0.0000000000000000000, 0.0000000000000000000, 1.000000000000000000 ) ) ;
#244 = CIRCLE ( 'NONE', #275, 20.26399999999999900 ) ;
#245 = EDGE_CURVE ( 'NONE', #255, #25, #123, .T. ) ;
#246 = COLOUR_RGB ( '',1.000000000000000000, 1.000000000000000000, 1.000000000000000000 ) ;
#247 = ORIENTED_EDGE ( 'NONE', *, *, #336, .T. ) ;
#248 = AXIS2_PLACEMENT_3D ( 'NONE', #93, #60, #18 ) ;
#249 = DIRECTION ( 'NONE',  ( 0.0000000000000000000, 1.000000000000000000, 0.0000000000000000000 ) ) ;
#250 = DIRECTION ( 'NONE',  ( -1.000000000000000000, -0.0000000000000000000, -0.0000000000000000000 ) ) ;
#251 = EDGE_CURVE ( 'NONE', #127, #177, #139, .T. ) ;
#252 = ORIENTED_EDGE ( 'NONE', *, *, #260, .T. ) ;
#253 = DIRECTION ( 'NONE',  ( 0.0000000000000000000, 0.0000000000000000000, 1.000000000000000000 ) ) ;
#254 = FILL_AREA_STYLE_COLOUR ( '', #84 ) ;
#255 = VERTEX_POINT ( 'NONE', #89 ) ;
#256 = EDGE_CURVE ( 'NONE', #191, #127, #194, .T. ) ;
#257 = ADVANCED_FACE ( 'NONE', ( #192 ), #259, .T. ) ;
#258 = CYLINDRICAL_SURFACE ( 'NONE', #237, 3.150000000000000800 ) ;
#259 = SPHERICAL_SURFACE ( 'NONE', #15, 20.26399999999999900 ) ;
#260 = EDGE_CURVE ( 'NONE', #200, #177, #48, .T. ) ;
#261 = PRESENTATION_LAYER_ASSIGNMENT (  '', '', ( #147 ) ) ;
#262 = DIRECTION ( 'NONE',  ( 0.0000000000000000000, -1.000000000000000000, -1.224646799147353200E-016 ) ) ;
#263 = CARTESIAN_POINT ( 'NONE',  ( 7.555629336014964000, 3.857637417314162700E-016, -3.149999999999999900 ) ) ;
#264 = ORIENTED_EDGE ( 'NONE', *, *, #17, .F. ) ;
#265 = DIRECTION ( 'NONE',  ( 0.0000000000000000000, 1.000000000000000000, 0.0000000000000000000 ) ) ;
#266 = AXIS2_PLACEMENT_3D ( 'NONE', #12, #22, #14 ) ;
#267 = PRESENTATION_STYLE_ASSIGNMENT (( #69 ) ) ;
#268 =( NAMED_UNIT ( * ) PLANE_ANGLE_UNIT ( ) SI_UNIT ( $, .RADIAN. ) );
#269 = CARTESIAN_POINT ( 'NONE',  ( -0.8160621761658039000, 0.0000000000000000000, 0.0000000000000000000 ) ) ;
#270 = ORIENTED_EDGE ( 'NONE', *, *, #46, .T. ) ;
#271 = DIRECTION ( 'NONE',  ( -0.0000000000000000000, -1.000000000000000000, -0.0000000000000000000 ) ) ;
#272 = ORIENTED_EDGE ( 'NONE', *, *, #189, .T. ) ;
#273 = ORIENTED_EDGE ( 'NONE', *, *, #299, .T. ) ;
#274 = ORIENTED_EDGE ( 'NONE', *, *, #35, .T. ) ;
#275 = AXIS2_PLACEMENT_3D ( 'NONE', #300, #304, #305 ) ;
#276 = CYLINDRICAL_SURFACE ( 'NONE', #248, 3.149999999999999900 ) ;
#277 = UNCERTAINTY_MEASURE_WITH_UNIT (LENGTH_MEASURE( 1.000000000000000100E-005 ), #36, 'distance_accuracy_value', 'NONE');
#278 = CARTESIAN_POINT ( 'NONE',  ( 6.173100806319661500, 0.0000000000000000000, 0.0000000000000000000 ) ) ;
#279 = EDGE_LOOP ( 'NONE', ( #232, #272, #170 ) ) ;
#280 = DIRECTION ( 'NONE',  ( -1.000000000000000000, -0.0000000000000000000, -0.0000000000000000000 ) ) ;
#281 = DIRECTION ( 'NONE',  ( 0.0000000000000000000, 0.0000000000000000000, 1.000000000000000000 ) ) ;
#282 = MECHANICAL_DESIGN_GEOMETRIC_PRESENTATION_REPRESENTATION (  '', ( #71 ), #101 ) ;
#283 = EDGE_LOOP ( 'NONE', ( #209, #316, #100, #118 ) ) ;
#284 = ORIENTED_EDGE ( 'NONE', *, *, #189, .F. ) ;
#285 = ORIENTED_EDGE ( 'NONE', *, *, #121, .F. ) ;
#286 = DIRECTION ( 'NONE',  ( 0.0000000000000000000, 1.000000000000000000, 0.0000000000000000000 ) ) ;
#287 = VECTOR ( 'NONE', #238, 1000.000000000000000 ) ;
#288 = AXIS2_PLACEMENT_3D ( 'NONE', #233, #318, #323 ) ;
#289 = CARTESIAN_POINT ( 'NONE',  ( 16.04260433993268700, 0.0000000000000000000, 2.659115204278181500E-017 ) ) ;
#290 = DIRECTION ( 'NONE',  ( 0.0000000000000000000, 1.000000000000000000, -0.0000000000000000000 ) ) ;
#291 = FACE_OUTER_BOUND ( 'NONE', #208, .T. ) ;
#292 = DIRECTION ( 'NONE',  ( 0.0000000000000000000, 0.0000000000000000000, 1.000000000000000000 ) ) ;
#293 = CARTESIAN_POINT ( 'NONE',  ( -10.58139566006731500, 0.0000000000000000000, 0.0000000000000000000 ) ) ;
#294 = VERTEX_POINT ( 'NONE', #313 ) ;
#295 = ORIENTED_EDGE ( 'NONE', *, *, #336, .F. ) ;
#296 = CARTESIAN_POINT ( 'NONE',  ( 1.094604339932686600, 0.0000000000000000000, -3.388131789017201400E-018 ) ) ;
#297 = DIRECTION ( 'NONE',  ( 0.0000000000000000000, 0.0000000000000000000, 1.000000000000000000 ) ) ;
#298 = LINE ( 'NONE', #109, #212 ) ;
#299 = EDGE_CURVE ( 'NONE', #25, #234, #114, .T. ) ;
#300 = CARTESIAN_POINT ( 'NONE',  ( -10.58139566006731500, 0.0000000000000000000, 0.0000000000000000000 ) ) ;
#301 = ORIENTED_EDGE ( 'NONE', *, *, #193, .T. ) ;
#302 = DIRECTION ( 'NONE',  ( 0.0000000000000000000, 0.0000000000000000000, -1.000000000000000000 ) ) ;
#303 = DIRECTION ( 'NONE',  ( -0.0000000000000000000, 1.000000000000000000, 1.224646799147353200E-016 ) ) ;
#304 = DIRECTION ( 'NONE',  ( -0.0000000000000000000, 1.000000000000000000, 1.224646799147353200E-016 ) ) ;
#305 = DIRECTION ( 'NONE',  ( 0.0000000000000000000, -1.224646799147353200E-016, 1.000000000000000000 ) ) ;
#306 = CLOSED_SHELL ( 'NONE', ( #221, #102, #229, #77, #157, #21 ) ) ;
#307 = ORIENTED_EDGE ( 'NONE', *, *, #219, .T. ) ;
#308 = VERTEX_POINT ( 'NONE', #6 ) ;
#309 = PRODUCT_DEFINITION_FORMATION_WITH_SPECIFIED_SOURCE ( 'ÈÎºÎ', '', #104, .NOT_KNOWN. ) ;
#310 = DIRECTION ( 'NONE',  ( -0.0000000000000000000, -1.000000000000000000, -0.0000000000000000000 ) ) ;
#311 = ADVANCED_FACE ( 'NONE', ( #59 ), #322, .F. ) ;
#312 = AXIS2_PLACEMENT_3D ( 'NONE', #135, #79, #140 ) ;
#313 = CARTESIAN_POINT ( 'NONE',  ( 9.682604339932686000, 0.0000000000000000000, 1.240812136896098300E-015 ) ) ;
#314 = VERTEX_POINT ( 'NONE', #240 ) ;
#315 = DIRECTION ( 'NONE',  ( 0.0000000000000000000, -1.000000000000000000, 0.0000000000000000000 ) ) ;
#316 = ORIENTED_EDGE ( 'NONE', *, *, #245, .T. ) ;
#317 = FACE_OUTER_BOUND ( 'NONE', #144, .T. ) ;
#318 = DIRECTION ( 'NONE',  ( -1.000000000000000000, -0.0000000000000000000, -0.0000000000000000000 ) ) ;
#319 = ADVANCED_FACE ( 'NONE', ( #130 ), #258, .T. ) ;
#320 = EDGE_LOOP ( 'NONE', ( #295, #227, #183 ) ) ;
#321 = DIRECTION ( 'NONE',  ( -1.000000000000000000, -0.0000000000000000000, -0.0000000000000000000 ) ) ;
#322 = SPHERICAL_SURFACE ( 'NONE', #195, 7.187999999999997900 ) ;
#323 = DIRECTION ( 'NONE',  ( 0.0000000000000000000, 0.0000000000000000000, 1.000000000000000000 ) ) ;
#324 = FILL_AREA_STYLE ('',( #254 ) ) ;
#325 = DIRECTION ( 'NONE',  ( 0.0000000000000000000, 0.0000000000000000000, -1.000000000000000000 ) ) ;
#326 = CARTESIAN_POINT ( 'NONE',  ( 9.436276432361415400, 0.0000000000000000000, 0.0000000000000000000 ) ) ;
#327 = DIRECTION ( 'NONE',  ( -1.000000000000000000, -0.0000000000000000000, -0.0000000000000000000 ) ) ;
#328 = DIRECTION ( 'NONE',  ( 0.0000000000000000000, 0.0000000000000000000, 1.000000000000000000 ) ) ;
#329 = SURFACE_SIDE_STYLE ('',( #80 ) ) ;
#330 = SURFACE_STYLE_USAGE ( .BOTH. , #329 ) ;
#331 = CIRCLE ( 'NONE', #97, 7.188000000000000600 ) ;
#332 = AXIS2_PLACEMENT_3D ( 'NONE', #63, #286, #243 ) ;
#333 =( LENGTH_UNIT ( ) NAMED_UNIT ( * ) SI_UNIT ( .MILLI., .METRE. ) );
#334 =( NAMED_UNIT ( * ) PLANE_ANGLE_UNIT ( ) SI_UNIT ( $, .RADIAN. ) );
#335 = FACE_OUTER_BOUND ( 'NONE', #345, .T. ) ;
#336 = EDGE_CURVE ( 'NONE', #138, #200, #337, .T. ) ;
#337 = CIRCLE ( 'NONE', #176, 7.187999999999997900 ) ;
#338 = SPHERICAL_SURFACE ( 'NONE', #206, 10.36000000000000100 ) ;
#339 = DIRECTION ( 'NONE',  ( -1.000000000000000000, -0.0000000000000000000, -0.0000000000000000000 ) ) ;
#340 = LINE ( 'NONE', #205, #107 ) ;
#341 =( NAMED_UNIT ( * ) SI_UNIT ( $, .STERADIAN. ) SOLID_ANGLE_UNIT ( ) );
#342 = AXIS2_PLACEMENT_3D ( 'NONE', #326, #327, #328 ) ;
#343 = DIRECTION ( 'NONE',  ( -1.000000000000000000, -0.0000000000000000000, -0.0000000000000000000 ) ) ;
#344 = ORIENTED_EDGE ( 'NONE', *, *, #40, .T. ) ;
#345 = EDGE_LOOP ( 'NONE', ( #210, #274, #344 ) ) ;
#346 = UNCERTAINTY_MEASURE_WITH_UNIT (LENGTH_MEASURE( 1.000000000000000100E-005 ), #117, 'distance_accuracy_value', 'NONE');
#347 = CARTESIAN_POINT ( 'NONE',  ( 16.04260433993268700, 0.0000000000000000000, 2.659115204278181500E-017 ) ) ;
ENDSEC;
END-ISO-10303-21;
