ISO-10303-21;
HEADER;
FILE_DESCRIPTION (( 'STEP AP214' ),
    '1' );
FILE_NAME ('145018.STEP',
    '2019-05-10T05:52:21',
    ( 'user' ),
    ( 'Î¢ÈíÖÐ¹ú' ),
    'SwSTEP 2.0',
    'SolidWorks 2016',
    '' );
FILE_SCHEMA (( 'AUTOMOTIVE_DESIGN' ));
ENDSEC;

DATA;
#1 = EDGE_CURVE ( 'NONE', #18, #171, #47, .T. ) ;
#2 = DIRECTION ( 'NONE',  ( 0.0000000000000000000, 0.0000000000000000000, 1.000000000000000000 ) ) ;
#3 = CARTESIAN_POINT ( 'NONE',  ( -6.639429321230914600, 0.0000000000000000000, 1.084202172485504400E-016 ) ) ;
#4 = ORIENTED_EDGE ( 'NONE', *, *, #113, .T. ) ;
#5 = DIRECTION ( 'NONE',  ( 0.0000000000000000000, 0.0000000000000000000, 1.000000000000000000 ) ) ;
#6 = DIRECTION ( 'NONE',  ( 0.0000000000000000000, 0.0000000000000000000, 1.000000000000000000 ) ) ;
#7 = CARTESIAN_POINT ( 'NONE',  ( -0.5519199926577972300, 0.0000000000000000000, 0.0000000000000000000 ) ) ;
#8 =( NAMED_UNIT ( * ) SI_UNIT ( $, .STERADIAN. ) SOLID_ANGLE_UNIT ( ) );
#9 = CARTESIAN_POINT ( 'NONE',  ( -0.3254039807686209800, 0.0000000000000000000, 5.000000000000000000 ) ) ;
#10 = PRODUCT_DEFINITION ( 'Î´Öª', '', #29, #20 ) ;
#11 = CLOSED_SHELL ( 'NONE', ( #327, #318, #102, #301, #204, #55 ) ) ;
#12 = DIRECTION ( 'NONE',  ( 0.0000000000000000000, 0.0000000000000000000, 1.000000000000000000 ) ) ;
#13 = CIRCLE ( 'NONE', #133, 11.08800000000000100 ) ;
#14 = APPLICATION_PROTOCOL_DEFINITION ( 'draft international standard', 'automotive_design', 1998, #309 ) ;
#15 = AXIS2_PLACEMENT_3D ( 'NONE', #135, #294, #30 ) ;
#16 =( NAMED_UNIT ( * ) PLANE_ANGLE_UNIT ( ) SI_UNIT ( $, .RADIAN. ) );
#17 = DIRECTION ( 'NONE',  ( 0.0000000000000000000, 0.0000000000000000000, 1.000000000000000000 ) ) ;
#18 = VERTEX_POINT ( 'NONE', #111 ) ;
#19 = CARTESIAN_POINT ( 'NONE',  ( -0.3254039807686222600, 0.0000000000000000000, 5.000000000000003600 ) ) ;
#20 = PRODUCT_DEFINITION_CONTEXT ( 'detailed design', #221, 'design' ) ;
#21 = DIRECTION ( 'NONE',  ( -0.0000000000000000000, 1.000000000000000000, 1.224646799147353200E-016 ) ) ;
#22 = ORIENTED_EDGE ( 'NONE', *, *, #127, .F. ) ;
#23 = AXIS2_PLACEMENT_3D ( 'NONE', #326, #241, #107 ) ;
#24 = CYLINDRICAL_SURFACE ( 'NONE', #149, 5.000000000000000000 ) ;
#25 = VERTEX_POINT ( 'NONE', #215 ) ;
#26 = SPHERICAL_SURFACE ( 'NONE', #231, 8.054000000000000300 ) ;
#27 = CARTESIAN_POINT ( 'NONE',  ( 7.702570678769085100, 0.0000000000000000000, -1.871118786659856000E-016 ) ) ;
#28 = CIRCLE ( 'NONE', #162, 39.81000000000000200 ) ;
#29 = PRODUCT_DEFINITION_FORMATION_WITH_SPECIFIED_SOURCE ( 'ÈÎºÎ', '', #315, .NOT_KNOWN. ) ;
#30 = DIRECTION ( 'NONE',  ( 0.0000000000000000000, 0.0000000000000000000, -1.000000000000000000 ) ) ;
#31 = DIRECTION ( 'NONE',  ( -1.000000000000000000, -0.0000000000000000000, -0.0000000000000000000 ) ) ;
#32 = CARTESIAN_POINT ( 'NONE',  ( -0.3254039807686209800, 0.0000000000000000000, 0.0000000000000000000 ) ) ;
#33 = VERTEX_POINT ( 'NONE', #19 ) ;
#34 = DIRECTION ( 'NONE',  ( -1.000000000000000000, -0.0000000000000000000, -0.0000000000000000000 ) ) ;
#35 = AXIS2_PLACEMENT_3D ( 'NONE', #97, #264, #2 ) ;
#36 = CARTESIAN_POINT ( 'NONE',  ( -36.89542932123091400, 0.0000000000000000000, 0.0000000000000000000 ) ) ;
#37 = CIRCLE ( 'NONE', #15, 8.054000000000000300 ) ;
#38 = AXIS2_PLACEMENT_3D ( 'NONE', #296, #239, #323 ) ;
#39 = ADVANCED_BREP_SHAPE_REPRESENTATION ( '145018', ( #314, #45, #343 ), #168 ) ;
#40 =( NAMED_UNIT ( * ) SI_UNIT ( $, .STERADIAN. ) SOLID_ANGLE_UNIT ( ) );
#41 = EDGE_LOOP ( 'NONE', ( #120, #200, #72, #106 ) ) ;
#42 = SURFACE_STYLE_USAGE ( .BOTH. , #90 ) ;
#43 = AXIS2_PLACEMENT_3D ( 'NONE', #321, #291, #57 ) ;
#44 = PRODUCT_CONTEXT ( 'NONE', #309, 'mechanical' ) ;
#45 = MANIFOLD_SOLID_BREP ( 'Ðý×ª3', #222 ) ;
#46 = FILL_AREA_STYLE ('',( #197 ) ) ;
#47 = CIRCLE ( 'NONE', #272, 39.81000000000000200 ) ;
#48 = FACE_OUTER_BOUND ( 'NONE', #208, .T. ) ;
#49 = PRODUCT_RELATED_PRODUCT_CATEGORY ( 'part', '', ( #315 ) ) ;
#50 = ORIENTED_EDGE ( 'NONE', *, *, #145, .T. ) ;
#51 = SURFACE_STYLE_USAGE ( .BOTH. , #201 ) ;
#52 = ORIENTED_EDGE ( 'NONE', *, *, #113, .F. ) ;
#53 = EDGE_LOOP ( 'NONE', ( #217, #101, #22, #112 ) ) ;
#54 = PRESENTATION_LAYER_ASSIGNMENT (  '', '', ( #142 ) ) ;
#55 = ADVANCED_FACE ( 'NONE', ( #235 ), #26, .T. ) ;
#56 = LINE ( 'NONE', #82, #196 ) ;
#57 = DIRECTION ( 'NONE',  ( 0.0000000000000000000, 0.0000000000000000000, 1.000000000000000000 ) ) ;
#58 = AXIS2_PLACEMENT_3D ( 'NONE', #3, #320, #150 ) ;
#59 = DIRECTION ( 'NONE',  ( 0.0000000000000000000, -1.224646799147353000E-016, 1.000000000000000000 ) ) ;
#60 = EDGE_LOOP ( 'NONE', ( #261, #186, #61 ) ) ;
#61 = ORIENTED_EDGE ( 'NONE', *, *, #175, .F. ) ;
#62 = SURFACE_STYLE_FILL_AREA ( #170 ) ;
#63 = DIRECTION ( 'NONE',  ( -1.000000000000000000, -0.0000000000000000000, -0.0000000000000000000 ) ) ;
#64 = LINE ( 'NONE', #286, #126 ) ;
#65 = CARTESIAN_POINT ( 'NONE',  ( -9.702612178336682500, 6.123233995736766300E-016, -5.000000000000000000 ) ) ;
#66 = VERTEX_POINT ( 'NONE', #304 ) ;
#67 = CARTESIAN_POINT ( 'NONE',  ( -6.639429321230914600, 0.0000000000000000000, 1.084202172485504400E-016 ) ) ;
#68 = DIRECTION ( 'NONE',  ( -1.000000000000000000, -0.0000000000000000000, -0.0000000000000000000 ) ) ;
#69 =( LENGTH_UNIT ( ) NAMED_UNIT ( * ) SI_UNIT ( .MILLI., .METRE. ) );
#70 =( GEOMETRIC_REPRESENTATION_CONTEXT ( 3 ) GLOBAL_UNCERTAINTY_ASSIGNED_CONTEXT ( ( #154 ) ) GLOBAL_UNIT_ASSIGNED_CONTEXT ( ( #302, #16, #8 ) ) REPRESENTATION_CONTEXT ( 'NONE', 'WORKASPACE' ) );
#71 = APPLICATION_PROTOCOL_DEFINITION ( 'draft international standard', 'automotive_design', 1998, #221 ) ;
#72 = ORIENTED_EDGE ( 'NONE', *, *, #194, .T. ) ;
#73 = CARTESIAN_POINT ( 'NONE',  ( -6.639429321230914600, 0.0000000000000000000, 1.084202172485504400E-016 ) ) ;
#74 = MECHANICAL_DESIGN_GEOMETRIC_PRESENTATION_REPRESENTATION (  '', ( #142 ), #88 ) ;
#75 = DIRECTION ( 'NONE',  ( 0.0000000000000000000, 1.000000000000000000, 0.0000000000000000000 ) ) ;
#76 = ORIENTED_EDGE ( 'NONE', *, *, #290, .F. ) ;
#77 = CARTESIAN_POINT ( 'NONE',  ( -9.702612178336682500, 0.0000000000000000000, 0.0000000000000000000 ) ) ;
#78 =( NAMED_UNIT ( * ) SI_UNIT ( $, .STERADIAN. ) SOLID_ANGLE_UNIT ( ) );
#79 = AXIS2_PLACEMENT_3D ( 'NONE', #189, #161, #248 ) ;
#80 = SPHERICAL_SURFACE ( 'NONE', #117, 8.054000000000000300 ) ;
#81 = ADVANCED_FACE ( 'NONE', ( #341 ), #319, .F. ) ;
#82 = CARTESIAN_POINT ( 'NONE',  ( -0.5519199926577972300, 6.123233995736770200E-016, -5.000000000000002700 ) ) ;
#83 = ORIENTED_EDGE ( 'NONE', *, *, #185, .F. ) ;
#84 = ORIENTED_EDGE ( 'NONE', *, *, #335, .F. ) ;
#85 = CARTESIAN_POINT ( 'NONE',  ( -0.3254039807686218700, 0.0000000000000000000, 0.0000000000000000000 ) ) ;
#86 = DIRECTION ( 'NONE',  ( -1.000000000000000000, -0.0000000000000000000, -0.0000000000000000000 ) ) ;
#87 = CARTESIAN_POINT ( 'NONE',  ( 2.599331090752853100, 0.0000000000000000000, 5.000000000000000900 ) ) ;
#88 =( GEOMETRIC_REPRESENTATION_CONTEXT ( 3 ) GLOBAL_UNCERTAINTY_ASSIGNED_CONTEXT ( ( #218 ) ) GLOBAL_UNIT_ASSIGNED_CONTEXT ( ( #259, #228, #78 ) ) REPRESENTATION_CONTEXT ( 'NONE', 'WORKASPACE' ) );
#89 = ORIENTED_EDGE ( 'NONE', *, *, #317, .F. ) ;
#90 = SURFACE_SIDE_STYLE ('',( #339 ) ) ;
#91 = DIRECTION ( 'NONE',  ( 0.0000000000000000000, 0.0000000000000000000, 1.000000000000000000 ) ) ;
#92 = VERTEX_POINT ( 'NONE', #193 ) ;
#93 = CARTESIAN_POINT ( 'NONE',  ( -6.639429321230914600, 0.0000000000000000000, 1.084202172485504400E-016 ) ) ;
#94 = AXIS2_PLACEMENT_3D ( 'NONE', #156, #178, #237 ) ;
#95 = DIRECTION ( 'NONE',  ( 0.0000000000000000000, 1.000000000000000000, 0.0000000000000000000 ) ) ;
#96 = FACE_OUTER_BOUND ( 'NONE', #242, .T. ) ;
#97 = CARTESIAN_POINT ( 'NONE',  ( 7.702570678769085100, 0.0000000000000000000, -1.871118786659856000E-016 ) ) ;
#98 = DIRECTION ( 'NONE',  ( 0.0000000000000000000, 0.0000000000000000000, 1.000000000000000000 ) ) ;
#99 = VERTEX_POINT ( 'NONE', #9 ) ;
#100 = AXIS2_PLACEMENT_3D ( 'NONE', #184, #211, #240 ) ;
#101 = ORIENTED_EDGE ( 'NONE', *, *, #238, .T. ) ;
#102 = ADVANCED_FACE ( 'NONE', ( #48 ), #118, .T. ) ;
#103 = AXIS2_PLACEMENT_3D ( 'NONE', #169, #21, #199 ) ;
#104 = DIRECTION ( 'NONE',  ( -1.000000000000000000, -0.0000000000000000000, -0.0000000000000000000 ) ) ;
#105 = DIRECTION ( 'NONE',  ( 0.0000000000000000000, 0.0000000000000000000, 1.000000000000000000 ) ) ;
#106 = ORIENTED_EDGE ( 'NONE', *, *, #263, .F. ) ;
#107 = DIRECTION ( 'NONE',  ( 0.0000000000000000000, 0.0000000000000000000, 1.000000000000000000 ) ) ;
#108 = CARTESIAN_POINT ( 'NONE',  ( -0.3254039807686222600, 6.123233995736771200E-016, -5.000000000000003600 ) ) ;
#109 = ORIENTED_EDGE ( 'NONE', *, *, #317, .T. ) ;
#110 = DIRECTION ( 'NONE',  ( 0.0000000000000000000, 0.0000000000000000000, 1.000000000000000000 ) ) ;
#111 = CARTESIAN_POINT ( 'NONE',  ( 2.914570678769087900, 0.0000000000000000000, 2.437659453702806900E-015 ) ) ;
#112 = ORIENTED_EDGE ( 'NONE', *, *, #194, .F. ) ;
#113 = EDGE_CURVE ( 'NONE', #99, #220, #146, .T. ) ;
#114 = COLOUR_RGB ( '',1.000000000000000000, 1.000000000000000000, 1.000000000000000000 ) ;
#115 = DIRECTION ( 'NONE',  ( 0.0000000000000000000, -1.000000000000000000, 0.0000000000000000000 ) ) ;
#116 = ORIENTED_EDGE ( 'NONE', *, *, #279, .T. ) ;
#117 = AXIS2_PLACEMENT_3D ( 'NONE', #73, #75, #98 ) ;
#118 = SPHERICAL_SURFACE ( 'NONE', #79, 11.08800000000000100 ) ;
#119 = EDGE_CURVE ( 'NONE', #66, #333, #275, .T. ) ;
#120 = ORIENTED_EDGE ( 'NONE', *, *, #238, .F. ) ;
#121 = DIRECTION ( 'NONE',  ( 0.0000000000000000000, 0.0000000000000000000, 1.000000000000000000 ) ) ;
#122 = ORIENTED_EDGE ( 'NONE', *, *, #136, .T. ) ;
#123 = AXIS2_PLACEMENT_3D ( 'NONE', #155, #267, #105 ) ;
#124 = PRESENTATION_STYLE_ASSIGNMENT (( #42 ) ) ;
#125 = SHAPE_DEFINITION_REPRESENTATION ( #207, #39 ) ;
#126 = VECTOR ( 'NONE', #198, 1000.000000000000000 ) ;
#127 = EDGE_CURVE ( 'NONE', #33, #230, #313, .T. ) ;
#128 = DIRECTION ( 'NONE',  ( 0.0000000000000000000, -1.000000000000000000, 0.0000000000000000000 ) ) ;
#129 = DIRECTION ( 'NONE',  ( 0.0000000000000000000, 1.000000000000000000, 0.0000000000000000000 ) ) ;
#130 = CARTESIAN_POINT ( 'NONE',  ( 1.414570678769085700, 0.0000000000000000000, 6.015854832651895600E-016 ) ) ;
#131 = ORIENTED_EDGE ( 'NONE', *, *, #257, .F. ) ;
#132 = CIRCLE ( 'NONE', #58, 8.054000000000000300 ) ;
#133 = AXIS2_PLACEMENT_3D ( 'NONE', #27, #206, #59 ) ;
#134 = DIRECTION ( 'NONE',  ( -0.0000000000000000000, 1.000000000000000000, 1.224646799147353200E-016 ) ) ;
#135 = CARTESIAN_POINT ( 'NONE',  ( -6.639429321230914600, 0.0000000000000000000, 1.084202172485504400E-016 ) ) ;
#136 = EDGE_CURVE ( 'NONE', #164, #33, #37, .T. ) ;
#137 = AXIS2_PLACEMENT_3D ( 'NONE', #340, #195, #167 ) ;
#138 = DIRECTION ( 'NONE',  ( 0.0000000000000000000, 1.000000000000000000, 0.0000000000000000000 ) ) ;
#139 = EDGE_LOOP ( 'NONE', ( #89, #122, #268 ) ) ;
#140 = SURFACE_STYLE_FILL_AREA ( #46 ) ;
#141 = EDGE_LOOP ( 'NONE', ( #266, #190, #157 ) ) ;
#142 = STYLED_ITEM ( 'NONE', ( #273 ), #314 ) ;
#143 = CIRCLE ( 'NONE', #103, 8.054000000000000300 ) ;
#144 = SURFACE_SIDE_STYLE ('',( #140 ) ) ;
#145 = EDGE_CURVE ( 'NONE', #220, #25, #292, .T. ) ;
#146 = CIRCLE ( 'NONE', #216, 5.000000000000000000 ) ;
#147 = CARTESIAN_POINT ( 'NONE',  ( -36.89542932123091400, 0.0000000000000000000, 0.0000000000000000000 ) ) ;
#148 = ORIENTED_EDGE ( 'NONE', *, *, #185, .T. ) ;
#149 = AXIS2_PLACEMENT_3D ( 'NONE', #77, #344, #121 ) ;
#150 = DIRECTION ( 'NONE',  ( 0.0000000000000000000, -1.224646799147353200E-016, 1.000000000000000000 ) ) ;
#151 = CIRCLE ( 'NONE', #287, 5.000000000000000900 ) ;
#152 = VECTOR ( 'NONE', #153, 1000.000000000000000 ) ;
#153 = DIRECTION ( 'NONE',  ( -1.000000000000000000, -0.0000000000000000000, -0.0000000000000000000 ) ) ;
#154 = UNCERTAINTY_MEASURE_WITH_UNIT (LENGTH_MEASURE( 1.000000000000000100E-005 ), #302, 'distance_accuracy_value', 'NONE');
#155 = CARTESIAN_POINT ( 'NONE',  ( -0.3254039807686218700, 0.0000000000000000000, 0.0000000000000000000 ) ) ;
#156 = CARTESIAN_POINT ( 'NONE',  ( -36.89542932123091400, 0.0000000000000000000, 0.0000000000000000000 ) ) ;
#157 = ORIENTED_EDGE ( 'NONE', *, *, #119, .T. ) ;
#158 = AXIS2_PLACEMENT_3D ( 'NONE', #245, #138, #163 ) ;
#159 = DIRECTION ( 'NONE',  ( 0.0000000000000000000, 0.0000000000000000000, -1.000000000000000000 ) ) ;
#160 = CYLINDRICAL_SURFACE ( 'NONE', #332, 5.000000000000002700 ) ;
#161 = DIRECTION ( 'NONE',  ( 0.0000000000000000000, 1.000000000000000000, 0.0000000000000000000 ) ) ;
#162 = AXIS2_PLACEMENT_3D ( 'NONE', #270, #134, #325 ) ;
#163 = DIRECTION ( 'NONE',  ( 0.0000000000000000000, 0.0000000000000000000, 1.000000000000000000 ) ) ;
#164 = VERTEX_POINT ( 'NONE', #182 ) ;
#165 = CARTESIAN_POINT ( 'NONE',  ( 0.0000000000000000000, 0.0000000000000000000, 0.0000000000000000000 ) ) ;
#166 = MECHANICAL_DESIGN_GEOMETRIC_PRESENTATION_REPRESENTATION (  '', ( #229 ), #70 ) ;
#167 = DIRECTION ( 'NONE',  ( 0.0000000000000000000, 0.0000000000000000000, 1.000000000000000000 ) ) ;
#168 =( GEOMETRIC_REPRESENTATION_CONTEXT ( 3 ) GLOBAL_UNCERTAINTY_ASSIGNED_CONTEXT ( ( #283 ) ) GLOBAL_UNIT_ASSIGNED_CONTEXT ( ( #205, #209, #40 ) ) REPRESENTATION_CONTEXT ( 'NONE', 'WORKASPACE' ) );
#169 = CARTESIAN_POINT ( 'NONE',  ( -6.639429321230914600, 0.0000000000000000000, 1.084202172485504400E-016 ) ) ;
#170 = FILL_AREA_STYLE ('',( #285 ) ) ;
#171 = VERTEX_POINT ( 'NONE', #87 ) ;
#172 = AXIS2_PLACEMENT_3D ( 'NONE', #147, #129, #234 ) ;
#173 = ORIENTED_EDGE ( 'NONE', *, *, #253, .F. ) ;
#174 = ADVANCED_FACE ( 'NONE', ( #227 ), #236, .T. ) ;
#175 = EDGE_CURVE ( 'NONE', #220, #99, #187, .T. ) ;
#176 = FACE_OUTER_BOUND ( 'NONE', #139, .T. ) ;
#177 = CIRCLE ( 'NONE', #310, 8.054000000000000300 ) ;
#178 = DIRECTION ( 'NONE',  ( 0.0000000000000000000, 1.000000000000000000, 0.0000000000000000000 ) ) ;
#179 = DIRECTION ( 'NONE',  ( -1.000000000000000000, -0.0000000000000000000, -0.0000000000000000000 ) ) ;
#180 = CARTESIAN_POINT ( 'NONE',  ( 2.599331090752853100, 0.0000000000000000000, 0.0000000000000000000 ) ) ;
#181 = VERTEX_POINT ( 'NONE', #130 ) ;
#182 = CARTESIAN_POINT ( 'NONE',  ( 1.414570678769085700, 0.0000000000000000000, 6.015854832651895600E-016 ) ) ;
#183 = FACE_OUTER_BOUND ( 'NONE', #298, .T. ) ;
#184 = CARTESIAN_POINT ( 'NONE',  ( 7.702570678769085100, 0.0000000000000000000, -1.871118786659856000E-016 ) ) ;
#185 = EDGE_CURVE ( 'NONE', #66, #25, #331, .T. ) ;
#186 = ORIENTED_EDGE ( 'NONE', *, *, #202, .T. ) ;
#187 = CIRCLE ( 'NONE', #23, 5.000000000000000000 ) ;
#188 = AXIS2_PLACEMENT_3D ( 'NONE', #254, #95, #17 ) ;
#189 = CARTESIAN_POINT ( 'NONE',  ( 7.702570678769085100, 0.0000000000000000000, -1.871118786659856000E-016 ) ) ;
#190 = ORIENTED_EDGE ( 'NONE', *, *, #290, .T. ) ;
#191 = FACE_OUTER_BOUND ( 'NONE', #141, .T. ) ;
#192 = PRESENTATION_LAYER_ASSIGNMENT (  '', '', ( #229 ) ) ;
#193 = CARTESIAN_POINT ( 'NONE',  ( 2.599331090752853100, 6.123233995736769200E-016, -5.000000000000000900 ) ) ;
#194 = EDGE_CURVE ( 'NONE', #171, #33, #306, .T. ) ;
#195 = DIRECTION ( 'NONE',  ( -1.000000000000000000, -0.0000000000000000000, -0.0000000000000000000 ) ) ;
#196 = VECTOR ( 'NONE', #104, 1000.000000000000000 ) ;
#197 = FILL_AREA_STYLE_COLOUR ( '', #210 ) ;
#198 = DIRECTION ( 'NONE',  ( -1.000000000000000000, -0.0000000000000000000, -0.0000000000000000000 ) ) ;
#199 = DIRECTION ( 'NONE',  ( 0.0000000000000000000, -1.224646799147353200E-016, 1.000000000000000000 ) ) ;
#200 = ORIENTED_EDGE ( 'NONE', *, *, #253, .T. ) ;
#201 = SURFACE_SIDE_STYLE ('',( #62 ) ) ;
#202 = EDGE_CURVE ( 'NONE', #181, #99, #177, .T. ) ;
#203 = CIRCLE ( 'NONE', #43, 5.000000000000000000 ) ;
#204 = ADVANCED_FACE ( 'NONE', ( #247 ), #347, .T. ) ;
#205 =( LENGTH_UNIT ( ) NAMED_UNIT ( * ) SI_UNIT ( .MILLI., .METRE. ) );
#206 = DIRECTION ( 'NONE',  ( -0.0000000000000000000, 1.000000000000000000, 1.224646799147353200E-016 ) ) ;
#207 = PRODUCT_DEFINITION_SHAPE ( 'NONE', 'NONE',  #10 ) ;
#208 = EDGE_LOOP ( 'NONE', ( #148, #116, #307 ) ) ;
#209 =( NAMED_UNIT ( * ) PLANE_ANGLE_UNIT ( ) SI_UNIT ( $, .RADIAN. ) );
#210 = COLOUR_RGB ( '',1.000000000000000000, 1.000000000000000000, 1.000000000000000000 ) ;
#211 = DIRECTION ( 'NONE',  ( 0.0000000000000000000, -1.000000000000000000, 0.0000000000000000000 ) ) ;
#212 = DIRECTION ( 'NONE',  ( 0.0000000000000000000, 0.0000000000000000000, 1.000000000000000000 ) ) ;
#213 = CIRCLE ( 'NONE', #137, 5.000000000000000900 ) ;
#214 = EDGE_CURVE ( 'NONE', #99, #66, #64, .T. ) ;
#215 = CARTESIAN_POINT ( 'NONE',  ( -2.194082492884451800, 6.123233995736766300E-016, -5.000000000000000000 ) ) ;
#216 = AXIS2_PLACEMENT_3D ( 'NONE', #32, #68, #249 ) ;
#217 = ORIENTED_EDGE ( 'NONE', *, *, #335, .T. ) ;
#218 = UNCERTAINTY_MEASURE_WITH_UNIT (LENGTH_MEASURE( 1.000000000000000100E-005 ), #259, 'distance_accuracy_value', 'NONE');
#219 = DIRECTION ( 'NONE',  ( 1.000000000000000000, 0.0000000000000000000, 0.0000000000000000000 ) ) ;
#220 = VERTEX_POINT ( 'NONE', #225 ) ;
#221 = APPLICATION_CONTEXT ( 'automotive_design' ) ;
#222 = CLOSED_SHELL ( 'NONE', ( #293, #174, #81, #346, #232, #288 ) ) ;
#223 = STYLED_ITEM ( 'NONE', ( #284 ), #39 ) ;
#224 = ORIENTED_EDGE ( 'NONE', *, *, #263, .T. ) ;
#225 = CARTESIAN_POINT ( 'NONE',  ( -0.3254039807686209800, 6.123233995736766300E-016, -5.000000000000000000 ) ) ;
#226 = FACE_OUTER_BOUND ( 'NONE', #316, .T. ) ;
#227 = FACE_OUTER_BOUND ( 'NONE', #53, .T. ) ;
#228 =( NAMED_UNIT ( * ) PLANE_ANGLE_UNIT ( ) SI_UNIT ( $, .RADIAN. ) );
#229 = STYLED_ITEM ( 'NONE', ( #124 ), #45 ) ;
#230 = VERTEX_POINT ( 'NONE', #108 ) ;
#231 = AXIS2_PLACEMENT_3D ( 'NONE', #67, #274, #91 ) ;
#232 = ADVANCED_FACE ( 'NONE', ( #256 ), #160, .T. ) ;
#233 = AXIS2_PLACEMENT_3D ( 'NONE', #85, #34, #110 ) ;
#234 = DIRECTION ( 'NONE',  ( 0.0000000000000000000, 0.0000000000000000000, 1.000000000000000000 ) ) ;
#235 = FACE_OUTER_BOUND ( 'NONE', #60, .T. ) ;
#236 = CYLINDRICAL_SURFACE ( 'NONE', #329, 5.000000000000002700 ) ;
#237 = DIRECTION ( 'NONE',  ( 0.0000000000000000000, 0.0000000000000000000, 1.000000000000000000 ) ) ;
#238 = EDGE_CURVE ( 'NONE', #92, #230, #56, .T. ) ;
#239 = DIRECTION ( 'NONE',  ( -1.000000000000000000, -0.0000000000000000000, -0.0000000000000000000 ) ) ;
#240 = DIRECTION ( 'NONE',  ( 0.0000000000000000000, 0.0000000000000000000, -1.000000000000000000 ) ) ;
#241 = DIRECTION ( 'NONE',  ( -1.000000000000000000, -0.0000000000000000000, -0.0000000000000000000 ) ) ;
#242 = EDGE_LOOP ( 'NONE', ( #322, #297, #52 ) ) ;
#243 = AXIS2_PLACEMENT_3D ( 'NONE', #271, #179, #5 ) ;
#244 = EDGE_LOOP ( 'NONE', ( #311, #303, #250, #76 ) ) ;
#245 = CARTESIAN_POINT ( 'NONE',  ( -6.639429321230914600, 0.0000000000000000000, 1.084202172485504400E-016 ) ) ;
#246 = PRESENTATION_LAYER_ASSIGNMENT (  '', '', ( #223 ) ) ;
#247 = FACE_OUTER_BOUND ( 'NONE', #244, .T. ) ;
#248 = DIRECTION ( 'NONE',  ( 0.0000000000000000000, 0.0000000000000000000, 1.000000000000000000 ) ) ;
#249 = DIRECTION ( 'NONE',  ( 0.0000000000000000000, 0.0000000000000000000, 1.000000000000000000 ) ) ;
#250 = ORIENTED_EDGE ( 'NONE', *, *, #214, .T. ) ;
#251 =( NAMED_UNIT ( * ) PLANE_ANGLE_UNIT ( ) SI_UNIT ( $, .RADIAN. ) );
#252 = DIRECTION ( 'NONE',  ( 0.0000000000000000000, 0.0000000000000000000, 1.000000000000000000 ) ) ;
#253 = EDGE_CURVE ( 'NONE', #92, #171, #151, .T. ) ;
#254 = CARTESIAN_POINT ( 'NONE',  ( -6.639429321230914600, 0.0000000000000000000, 1.084202172485504400E-016 ) ) ;
#255 = COLOUR_RGB ( '',1.000000000000000000, 1.000000000000000000, 1.000000000000000000 ) ;
#256 = FACE_OUTER_BOUND ( 'NONE', #41, .T. ) ;
#257 = EDGE_CURVE ( 'NONE', #18, #92, #28, .T. ) ;
#258 = FILL_AREA_STYLE_COLOUR ( '', #255 ) ;
#259 =( LENGTH_UNIT ( ) NAMED_UNIT ( * ) SI_UNIT ( .MILLI., .METRE. ) );
#260 = SPHERICAL_SURFACE ( 'NONE', #172, 39.81000000000000200 ) ;
#261 = ORIENTED_EDGE ( 'NONE', *, *, #277, .F. ) ;
#262 = VECTOR ( 'NONE', #86, 1000.000000000000000 ) ;
#263 = EDGE_CURVE ( 'NONE', #230, #33, #305, .T. ) ;
#264 = DIRECTION ( 'NONE',  ( 0.0000000000000000000, 1.000000000000000000, 0.0000000000000000000 ) ) ;
#265 = MECHANICAL_DESIGN_GEOMETRIC_PRESENTATION_REPRESENTATION (  '', ( #223 ), #281 ) ;
#266 = ORIENTED_EDGE ( 'NONE', *, *, #279, .F. ) ;
#267 = DIRECTION ( 'NONE',  ( -1.000000000000000000, -0.0000000000000000000, -0.0000000000000000000 ) ) ;
#268 = ORIENTED_EDGE ( 'NONE', *, *, #127, .T. ) ;
#269 = FACE_OUTER_BOUND ( 'NONE', #337, .T. ) ;
#270 = CARTESIAN_POINT ( 'NONE',  ( -36.89542932123091400, 0.0000000000000000000, 0.0000000000000000000 ) ) ;
#271 = CARTESIAN_POINT ( 'NONE',  ( -2.194082492884451800, 0.0000000000000000000, 0.0000000000000000000 ) ) ;
#272 = AXIS2_PLACEMENT_3D ( 'NONE', #36, #128, #159 ) ;
#273 = PRESENTATION_STYLE_ASSIGNMENT (( #51 ) ) ;
#274 = DIRECTION ( 'NONE',  ( 0.0000000000000000000, 1.000000000000000000, 0.0000000000000000000 ) ) ;
#275 = CIRCLE ( 'NONE', #100, 11.08800000000000100 ) ;
#276 = FILL_AREA_STYLE ('',( #258 ) ) ;
#277 = EDGE_CURVE ( 'NONE', #181, #220, #132, .T. ) ;
#278 = ORIENTED_EDGE ( 'NONE', *, *, #1, .T. ) ;
#279 = EDGE_CURVE ( 'NONE', #25, #333, #13, .T. ) ;
#280 =( NAMED_UNIT ( * ) SI_UNIT ( $, .STERADIAN. ) SOLID_ANGLE_UNIT ( ) );
#281 =( GEOMETRIC_REPRESENTATION_CONTEXT ( 3 ) GLOBAL_UNCERTAINTY_ASSIGNED_CONTEXT ( ( #295 ) ) GLOBAL_UNIT_ASSIGNED_CONTEXT ( ( #69, #251, #280 ) ) REPRESENTATION_CONTEXT ( 'NONE', 'WORKASPACE' ) );
#282 = ORIENTED_EDGE ( 'NONE', *, *, #214, .F. ) ;
#283 = UNCERTAINTY_MEASURE_WITH_UNIT (LENGTH_MEASURE( 1.000000000000000100E-005 ), #205, 'distance_accuracy_value', 'NONE');
#284 = PRESENTATION_STYLE_ASSIGNMENT (( #338 ) ) ;
#285 = FILL_AREA_STYLE_COLOUR ( '', #114 ) ;
#286 = CARTESIAN_POINT ( 'NONE',  ( -9.702612178336682500, 0.0000000000000000000, 5.000000000000000000 ) ) ;
#287 = AXIS2_PLACEMENT_3D ( 'NONE', #180, #31, #212 ) ;
#288 = ADVANCED_FACE ( 'NONE', ( #183 ), #330, .T. ) ;
#289 = ORIENTED_EDGE ( 'NONE', *, *, #136, .F. ) ;
#290 = EDGE_CURVE ( 'NONE', #25, #66, #203, .T. ) ;
#291 = DIRECTION ( 'NONE',  ( -1.000000000000000000, -0.0000000000000000000, -0.0000000000000000000 ) ) ;
#292 = LINE ( 'NONE', #65, #152 ) ;
#293 = ADVANCED_FACE ( 'NONE', ( #226 ), #260, .T. ) ;
#294 = DIRECTION ( 'NONE',  ( 0.0000000000000000000, -1.000000000000000000, 0.0000000000000000000 ) ) ;
#295 = UNCERTAINTY_MEASURE_WITH_UNIT (LENGTH_MEASURE( 1.000000000000000100E-005 ), #69, 'distance_accuracy_value', 'NONE');
#296 = CARTESIAN_POINT ( 'NONE',  ( -9.702612178336682500, 0.0000000000000000000, 0.0000000000000000000 ) ) ;
#297 = ORIENTED_EDGE ( 'NONE', *, *, #277, .T. ) ;
#298 = EDGE_LOOP ( 'NONE', ( #131, #278, #173 ) ) ;
#299 = CARTESIAN_POINT ( 'NONE',  ( -0.5519199926577972300, 0.0000000000000000000, 5.000000000000002700 ) ) ;
#300 = SPHERICAL_SURFACE ( 'NONE', #188, 8.054000000000000300 ) ;
#301 = ADVANCED_FACE ( 'NONE', ( #191 ), #334, .T. ) ;
#302 =( LENGTH_UNIT ( ) NAMED_UNIT ( * ) SI_UNIT ( .MILLI., .METRE. ) );
#303 = ORIENTED_EDGE ( 'NONE', *, *, #175, .T. ) ;
#304 = CARTESIAN_POINT ( 'NONE',  ( -2.194082492884451800, 0.0000000000000000000, 5.000000000000000000 ) ) ;
#305 = CIRCLE ( 'NONE', #123, 5.000000000000003600 ) ;
#306 = LINE ( 'NONE', #299, #262 ) ;
#307 = ORIENTED_EDGE ( 'NONE', *, *, #119, .F. ) ;
#308 = DIRECTION ( 'NONE',  ( 0.0000000000000000000, 0.0000000000000000000, -1.000000000000000000 ) ) ;
#309 = APPLICATION_CONTEXT ( 'automotive_design' ) ;
#310 = AXIS2_PLACEMENT_3D ( 'NONE', #93, #115, #308 ) ;
#311 = ORIENTED_EDGE ( 'NONE', *, *, #145, .F. ) ;
#312 = CARTESIAN_POINT ( 'NONE',  ( -3.385429321230915900, 0.0000000000000000000, 4.918323067813070200E-016 ) ) ;
#313 = CIRCLE ( 'NONE', #233, 5.000000000000003600 ) ;
#314 = MANIFOLD_SOLID_BREP ( 'Ðý×ª1', #11 ) ;
#315 = PRODUCT ( '145018', '145018', '', ( #44 ) ) ;
#316 = EDGE_LOOP ( 'NONE', ( #328, #324, #84 ) ) ;
#317 = EDGE_CURVE ( 'NONE', #164, #230, #143, .T. ) ;
#318 = ADVANCED_FACE ( 'NONE', ( #269 ), #24, .T. ) ;
#319 = SPHERICAL_SURFACE ( 'NONE', #158, 8.054000000000000300 ) ;
#320 = DIRECTION ( 'NONE',  ( -0.0000000000000000000, 1.000000000000000000, 1.224646799147353200E-016 ) ) ;
#321 = CARTESIAN_POINT ( 'NONE',  ( -2.194082492884451800, 0.0000000000000000000, 0.0000000000000000000 ) ) ;
#322 = ORIENTED_EDGE ( 'NONE', *, *, #202, .F. ) ;
#323 = DIRECTION ( 'NONE',  ( 0.0000000000000000000, 0.0000000000000000000, 1.000000000000000000 ) ) ;
#324 = ORIENTED_EDGE ( 'NONE', *, *, #257, .T. ) ;
#325 = DIRECTION ( 'NONE',  ( 0.0000000000000000000, -1.224646799147353200E-016, 1.000000000000000000 ) ) ;
#326 = CARTESIAN_POINT ( 'NONE',  ( -0.3254039807686209800, 0.0000000000000000000, 0.0000000000000000000 ) ) ;
#327 = ADVANCED_FACE ( 'NONE', ( #96 ), #80, .T. ) ;
#328 = ORIENTED_EDGE ( 'NONE', *, *, #1, .F. ) ;
#329 = AXIS2_PLACEMENT_3D ( 'NONE', #7, #63, #6 ) ;
#330 = SPHERICAL_SURFACE ( 'NONE', #94, 39.81000000000000200 ) ;
#331 = CIRCLE ( 'NONE', #243, 5.000000000000000000 ) ;
#332 = AXIS2_PLACEMENT_3D ( 'NONE', #342, #336, #252 ) ;
#333 = VERTEX_POINT ( 'NONE', #312 ) ;
#334 = SPHERICAL_SURFACE ( 'NONE', #35, 11.08800000000000100 ) ;
#335 = EDGE_CURVE ( 'NONE', #171, #92, #213, .T. ) ;
#336 = DIRECTION ( 'NONE',  ( -1.000000000000000000, -0.0000000000000000000, -0.0000000000000000000 ) ) ;
#337 = EDGE_LOOP ( 'NONE', ( #4, #50, #83, #282 ) ) ;
#338 = SURFACE_STYLE_USAGE ( .BOTH. , #144 ) ;
#339 = SURFACE_STYLE_FILL_AREA ( #276 ) ;
#340 = CARTESIAN_POINT ( 'NONE',  ( 2.599331090752853100, 0.0000000000000000000, 0.0000000000000000000 ) ) ;
#341 = FACE_OUTER_BOUND ( 'NONE', #345, .T. ) ;
#342 = CARTESIAN_POINT ( 'NONE',  ( -0.5519199926577972300, 0.0000000000000000000, 0.0000000000000000000 ) ) ;
#343 = AXIS2_PLACEMENT_3D ( 'NONE', #165, #12, #219 ) ;
#344 = DIRECTION ( 'NONE',  ( -1.000000000000000000, -0.0000000000000000000, -0.0000000000000000000 ) ) ;
#345 = EDGE_LOOP ( 'NONE', ( #289, #109, #224 ) ) ;
#346 = ADVANCED_FACE ( 'NONE', ( #176 ), #300, .F. ) ;
#347 = CYLINDRICAL_SURFACE ( 'NONE', #38, 5.000000000000000000 ) ;
ENDSEC;
END-ISO-10303-21;
